» » »

Givin Up Tabs (ver.2)

Artists:  A B C D E F G H I J K L M N O P Q R S T U V W X Y Z # 

Givin Up Tabs (ver.2)

Darkness
Rating:
5/5 (4 votes)

Tabs too difficult? Try these video lessons and learn fast.
                The Darkness - Givin Up
-- Solo


cheers

e|-----------------------------------------------------------|
B|-12-14-14h15p14-14-14p12 14----14-14-16-16/17-16/17~~------|
G|-----------------------------------------------------------|
D|-----------------------------------------------------------|
A|-----------------------------------------------------------|
E|-----------------------------------------------------------|

e|----11-9------------------------------------------------------------------------------------------------|
B|---------12-11-9---------------------------------------------------------------7--7--7--7--7--7--7------|
G|-11--------------11-9-8-------------------------------------------6-9-6-8-11--10-10-10-10-10-10-10b-----|
D|------------------------11-9-8-----------------------------6-8-9----------------------------------------|
A|--------------------------------11-9-----------------6-7-9----------------------------------------------|
E|-------------------------------------12-11-9----7-9-----------------------------------------------------|


e|------------------------------------------------------------------------------------555555-----------------------------------|
B|-------------------------11-11p9---------------------------------------------x-5-x--555555--10~-9b11r7-----------------------|
G|-----------8-9-8-----------------9p8-9---------------------------------------x-4-x--------------------9-10p9--9b11r7---9-7~--|
D|-8--8-9-11-------11p9-7------------------11p9-11---11b-11b-11b-11b12b11-\4-4-x-4-x-----------------------------------7-------|
A|-----------------------------------------------------------------------------------------------------------------------------|
E|-----------------------------------------------------------------------------------------------------------------------------|


e|-------------11-12-11-------------16b(18)-16b18r14--------------------------------|
B|-11-11-12-14----------14p12-11---------------------17p16p17---15b~~-15b-15b-15b---|
G|----------------------------------------------------------------------------------|
D|----------------------------------------------------------------------------------|
A|----------------------------------------------------------------------------------|
E|----------------------------------------------------------------------------------|

e|-------------------------------------------------------------------------------------------------------------------|
B|-16p14p12h14p12\11h12p11\9h11p9\7h9p7\5h7p5\4h5p4\2h4p2p0-2p0h4p0h5p0h4p0h5p0h7p0h5p0h7p0h9p0h7p0h9p0h11p0-11b~----|
G|-------------------------------------------------------------------------------------------------------------------|
D|-------------------------------------------------------------------------------------------------------------------|
A|-------------------------------------------------------------------------------------------------------------------|
E|-------------------------------------------------------------------------------------------------------------------|
            
Tabs too difficult? Try these video lessons and learn fast.


comments powered by Disqus
↑ Back to top | Tablatures and chords are parodies/interpretations of the original songs. You may use it for private study, scholarship, research or language learning purposes only