>
 >
Givin Up 2

Givin Up 2 Guitar Tabs

Darkness - Givin Up 2 chords, tabs, tablatures, lyrics

Guitar lessons | Add/correct | Request | Top 50 tabs Artists:  A B C D E F G H I J K L M N O P Q R S T U V W X Y Z 0-9

Givin Up 2 Guitar Tabs – Darkness

CD, Sheet music, Poster

Do you like Givin Up 2? Share with your friends now
Tabs
----------------------------------------------------------------------------
                            The Darkness: Givin' Up
----------------------------------------------------------------------------


I noticed there really wasn't a decent tab containing the whole song by the darkness, so 
took a moment to work out my rendition on one of my fave fun songs to jam to.


Tuning: Tuned 2 Steps Up/Capo At Fret 2 (Substitute tab 2 frets higher)

Legends:
         /  slide up
         \  slide down
         h  hammer-on
         p  pull-off
         ~  vibrato
         +  harmonic
         x  mute note
         b  bend
         r  release bend


  Intro:

  Riff A                                             Riff B
E|-------------------------------------------------------------------------|
B|-3-55-3-5----------3-5-5333----------------------------------------------|
G|-2-22-2-2- repeat -2-2-2222-2-------2-(2)- repeat --------------2--(2 2)-|
D|-4-22-4-2--- 1X ---4-2-2444-2-22----2-(2)- riff A --------------2--(2 2)-|
A|-0-00-0-0----------0-0-0000-0-22----0-(0)----------0--4-2-4-----0--(0 0)-|
E|------------------------------00-4-----------------0-0-2-0-2-024---------|

  Verse:                Riff C
E|----------------------0--00-0---00000--2--x-----0--00-0---00000--2--x----|
B|----------------------0--00-0---00000--3--2-----0--00-0---00000--3--2----|
G|- repeat -- repeat ---x--xx-x---xxxxx--2--2-----x--xx-x---xxxxx--2--2----|
D|- riff A -- riff B ---2--22-2---22222--0--2-----2--22-2---22222--0--2----|
A|--- 4X ---------------2---2-2---2-2-2-----0-----2---2-2---2-2-2-----0----|
E|----------------------0---0-0---0-0-0-----------0---0 0---0-0-0----------|

                                                 Riff D
E|-0-0--0-0--0--0---000---0-0--0-0--0--------------------------------------|
B|-7-7--5-5-\3--2---222---7-7--5-5-\3--3-----5-----------------------------|
G|-7-7--6-6-\4--2---222---7-7--6-6-\4--4-24/6-6\--2--2--2--2-2222-2---22-2-|
D|-0-0--0-0--0--0----0----0-0--0-0--0-------------2--4--2--4-2222-4---22-4-|
A|------------------------------------------------0--0--0--0-0000-0---00-0-|
E|-------------------------------------------------------------------------|


E|-------------------------------------------------------------------------|
B|-3-55--3-22------------------------------------------3-55--3-22----------|
G|-2-22--2-22--------2------2--2--2--2-2222-2---22-2---2-22--2-22--------2-|
D|-4-22--4-22--22----2------2--4--2--4-2222-4---22-4---4-22--4-22--22----2-|
A|-0-00--0-00--22----0--3h4-0--0--0--0-0000-0---00-0---0-00--0-00--22----0-|
E|-------------00-4------------------------------------------------00-4----|

         Verse:
E|--------------0-000--0-0--000--000--000--000--0--0--0--------------------|
B|--------------5-555--5-5--333--222--000--222--0--0--2------------(2)p0---|
G|- repeat -----6-666--4-4--222--222--222--222--1--1--2-- repeat --(2)p0---|
D|- riff B -x\--7--7---6-6--4-4--2-2--2-2--2-2--2--2--2---- 1x ----(2)p0---|
A|----------x\--0--0---0-0--0-0--0-0--0-0--0-0--2--2--0--------------------|
E|----------x\----------------------------------0--0-----------------------|

                                 Interlude:
E|---------------------------------------------------------------------------|
B|--------------------------------5-55--5--5--555--5-55--555--5--5--555------|
G|-- repeat -- repeat -- repeat --2-22--2--2--222--2-22--222--2--2--222------|rep.
D|-- riff C -- riff D -- riff B --2-22--2--2--222--2-22--222--2--2--222------|sim.
A|--------------------------------0-00--0--0--000--0-00--000--0--0--000------|
E|---------------------------------------------------------------------------|

       pm.......................       pm........................
E|-------------------------------------------------------------------------|
B|--777-----------------------------999-----------------------------101010-|
G|--777-----------------------------999-----------------------------101010-|
D|--777-----------------------------999-----------------------------101010-|
A|--0-0--0-0-0-0-0-0-0-0-0-0-0-0-0--0-0--0-0-0-0-0-0-0-0-0-0-0-0-0--0---0--|
E|-------------------------------------------------------------------------|


                                                 Solo: Part1
E|--------------------------------------------------9--7-------------------|
B|-10-12-12b12b-10 12~~-10-10/1212-12-14-14b14b~~/9--------10--9--7--------|
G|-------------------------10/1212------------------------------------9--7-|
D|-------------------------10/1212-----------------------------------------|
A|-------------------------0----0------------------------------------------|
E|-------------------------------------------------------------------------|

E|-------------------------------------------------------------------------|
B|----------------------------------------------------5-5-5-5-5-5-5--------|
G|-------------------------------------------7-----9~-8-8-8-8-8-8-8b~~-----|
D|-9--7--6-----------------------------6h7/9---7/9-------------------------|
A|----------9--7--5--------------5-7-9-------------------------------------|
E|-------------------9--7--5-7-9-------------------------------------------|

   Solo: Part2
E|-------------------------------------------------------------------------|
B|-----------------------------7b-7rp5-------------------------------------|
G|-------------6-7-6------------------7-6-7--4h6p4\2-4~~--4b-4b-4b-4b-(4)--|
D|-/6~~~-6-7-9-------9-7-6~~~---------------------------------------------2|
A|-------------------------------------------------------------------------|
E|-------------------------------------------------------------------------|

E|-5---5-5---5---5-55--8-8-----------------------------------9-10-9--------|
B|-5---5-5---5---5-55--7b7rp5-7p5-------------/9~~~-9-10-12--------12109~~-|
G|--------7b--7b------------------7bp5-7-5~~-------------------------------|
D|-------------------------------------------------------------------------|
A|-------------------------------------------------------------------------|
E|-------------------------------------------------------------------------|

E|-14b-14rp12--------------------------------------------------------------|
B|-----------15-14-15~~13b--13b-13b-13b--14p12\10-12p10\9-10p9\7-9p7\5-7p53|
G|-------------------------------------------------------------------------|
D|-------------------------------------------------------------------------|
A|-------------------------------------------------------------------------|
E|-------------------------------------------------------------------------|

E|-------------------------------------------------------------------------|
B|-5p3\2-3p2p0-2p02p0-2p03p05p0-3p05p07p0-5p07p09p0-7p09p0-9b~~-9b~~~~~~---|
G|-------------------------------------------------------------------------|
D|-------------------------------------------------------------------------|
A|-------------------------------------------------------------------------|
E|-------------------------------------------------------------------------|

  Outro Chorus:
E|-------------------------------------------------------------------------|
B|----------------------------3-55--3-22-----------------------------------|
G|-2--2--2--2-2222-2---22-2---2-22--2-22--------2------- repeat --2--2--2-2|
D|-2--4--2--4-2222-4---22-4---4-22--4-22--22----2--------- 3x ----2--4--2-4|
A|-0--0--0--0-0000-0---00-0---0-00--0-00--22----0--3h4------------0--0--0-0|
E|----------------------------------------00-4-----------------------------|


E|-------------------------------------------------------------------------|
B|-----------------3-55--3-22----------------------------------------------|
G|-2222-2---22-2---2-22--2-22--------2-------------------------------------|
D|-2222-4---22-4---4-22--4-22--22----2-------------------------------------|
A|-0000-0---00-0---0-00--0-00--22----0-------------------------------------|
E|-----------------------------00-4----------------------------------------|


Enjoy!!
Michael T.





Comments


Popular Darkness tabs & chords
I Believe In A Thing Called Love 2 Bass Tabs
Stuck In A Rut Bass Tabs
Bare Back Tabs
Dinner Lady Arms 5 Tabs
Get Your Hands Off My Woman 2 Tabs
I Beleive In A Thing Called Love Tabs
Love Is Only A Feeling 5 Tabs
Love Is Only A Feeling 6 Tabs
Seemed Like A Good Idea At The Time Tabs
Dinner Lady Arms Ukulele


Song lyrics



↑ Back to top | Tablatures and chords are parodies/interpretations of the original songs. You may use it for private study, scholarship, research or language learning purposes only
© 2014 AZChords.com Contact us | Privacy policy | DMCA | Add/correct tabs | Request tabs | Top 50 tabs