» » »

Darkness, Givin Up Tabs (ver.1)

Artists:  A B C D E F G H I J K L M N O P Q R S T U V W X Y Z # 

Givin Up Tabs (ver.1)

Darkness Tabs
Rating:
0/5 (0 votes)
Givin Up lessons Tabs too difficult? Try these video lessons and learn fast
                seeing as all the tabs for this track were seriously fcuked up heres a gud1

note, a power chord is 3 strings not 6!!
----------------------------------------
-----------------------------------------
-4-4-3-4--4-4-4-3-4--4-4-4-3-4-3--------
-4-4-4-4--4-4-4-4-4--4-4-4-4-4-4--------
-2-2-4-2--2-2-2-4-3--2-2-2-4-2-4--------
-----2----------2----------2---2-2-4-6-7-

----------------------------------------
----------------------------------------
-4-4-3-4--4-4-4-3-4--4-4-4-3-4-3--------
-4-4-4-4--4-4-4-4-4--4-4-4-4-4-4--------
-2-2-4-2--2-2-2-4-3--2-2-2-4-2-4--------
-----2----------2----------2---2-2-4-6-7-

---------------------------------------
---------------------------------------
-4-4-3-4--4-4-4-3-4--4-4-4-3-4-3--------
-4-4-4-4--4-4-4-4-4--4-4-4-4-4-4--------
-2-2-4-2--2-2-2-4-3--2-2-2-4-2-4--------
-----2----------2----------2---2-2-4-6-7-

charlie+mulla
            

comments powered by Disqus
↑ Back to top | Darkness Tabs for Givin Up. Lyrics for acoustic guitar and electric guitar. Tablatures and chords are parodies/interpretations of the original songs. You may use it for private study, scholarship, research or language learning purposes only