>
 >
Get Your Hands Off Of My Woman

Get Your Hands Off Of My Woman Guitar Tabs

Darkness - Get Your Hands Off Of My Woman chords, tabs, tablatures, lyrics

Guitar lessons | Add/correct | Request | Top 50 tabs Artists:  A B C D E F G H I J K L M N O P Q R S T U V W X Y Z 0-9

Get Your Hands Off Of My Woman Guitar Tabs – Darkness

CD, Sheet music, Poster

Do you like Get Your Hands Off Of My Woman? Share with your friends now
Bass TabsTabs
Intro
-------------------------------------------------------
-------------------------------------------------------
-7~----------------------------------------------------
-7~-----let-ring---------------------------------------
-5~----------------------------------------------------
-------------------------------------------------------

main riff
2 times
--7-7--1-1-------5-5-2----------7-7--1-1-------5-5-5-2-5-6-----------
--5-5--3-3--1-1--3-3-0--5-5-3---5-5--3-3--1-1--3-3-3-0-3-4-----------
------------3-3---------3-3-1-------------3-3------------------------

2 times (first verse riff)
-------------------------
-------------------------
-------------------------
-7777777777777-----------
-5555555555555-3-55-3----
---------------1-33-1----

then play all this through once (second verse riff)
--------------|-------------------------|-------------------------|
--------------|-------------------------|-------------------------|
--------------|-------------------------|-------------------------|
--------------|-------------------------|-------------------------|
-5-5-3-5------|-3-5-5-3-5---------------|-3-55555555555555/-------|
-3-3-1-3------|-1-3-3-1-3---------------|-1-33333333333333/-------|

-------------------------|
-------------------------|
-------------------------|
-------------------------|
-2-3-4-5-6-7-8-9-10-11---|
-0-1-2-3-4-5-6-7-8--9----|

now play the main riff twice

then this once
---------------------------------------
---------------------------------------   
---------------------------------------
--77777777777777777--10-12-12--10------   
--55555555555555555--8--10-10--8-------   
---------------------------------------  

now play the second verse riff sequence once  

now play the main riff twice


then this 
--------------------------------------------------------
--------------------------------------------------------
--------------------------------------------------------
--------------------------------------------------------
--555555555555555555555555555555555555555555------------
--333333333333333333333333333333333333333333------------

solo
-5-6p4-5p4-3b-6-5p4h3~----5-6p4-5p4-3b-6-5p4h3~----5-6p4-5p4-3b-6-5p4h3~---

-------------------------
-------------------------
-------------------------
5-6p4-5p4-3b-6-5p4h3~----
-------------------------
-------------------------


-----11b-13p11h12-9-9h11b-10h12~--12b-13b-14b-15b-16b-17b-19b-20b-21b-----
-----11b------------9h11b-10h12~------------------------------------------

Now play the main riff twice 

then this

---7-7--3-3------5-5-/-2---------------------------------------------------
---5-5--1-1-3-3--3-3-/-0---------------------------------------------------
------------1-1-------------------------------------------------------------





Comments


Popular Darkness tabs & chords
Friday Night Chords
Givin Up 3 Tabs
Growing On Me 8 Tabs
I Beleive In A Thing Called Love Tabs
I Believe In A Thing Called Love 13 Tabs
I Believe In A Thing Called Love 5 Tabs
I Believe In A Thing Called Love First Tabs
Love On The Rocks With No Ice Tabs
Love On The Rocks With No Ice 2 Tabs
Blind Man Ukulele


Song lyrics



↑ Back to top | Tablatures and chords are parodies/interpretations of the original songs. You may use it for private study, scholarship, research or language learning purposes only
© 2014 AZChords.com Contact us | Privacy policy | DMCA | Add/correct tabs | Request tabs | Top 50 tabs