» » »

Darkness, Get Your Hands Off Of My Woman Tabs (ver.3)

Artists:  A B C D E F G H I J K L M N O P Q R S T U V W X Y Z # 

Get Your Hands Off Of My Woman Tabs (ver.3)

Darkness Tabs
 Rating:
4/5 (9 votes)
Get Your Hands Off Of My Woman lessons Tabs too difficult? Try these video lessons and learn fast
1
                The Darkness=the best band in the world

Get your hands off my woman

normal tuning

This is a song by the best band in the world so play it and the rate.

The Darkness ROCK

do this first
]----------------------------
]----------------------------
]----------------------------
]----------------------------
]---7------------------------
]---5------------------------

Main riff
]----------------------------
]----------------------------
]----------------------------
]-77-------5-5-5-5-5-5-5-----
]-55-88-55-3-3-3-3-3-3-3-----
]----66-33-------------------

Then do this
]----------------------------
]----------------------------
]----------------------------
]-77-------5-5-5-5-5-5-5-----
]-55-88-55-3-3-3-3-3-3-3-----
]----66-33-------------------

pm..........................

after the chourous do this

]----------------------------
]----------------------------
]----------------------------
]-9-10-11-12-----------------
]-7-8--9--10-----------------
]----------------------------

Then do this
]----------------------------
]----------------------------
]----------------------------
]-7--9--7--------------------
]-5--7--5--------------------
]----------------------------


before the solo
]----------------------------
]----------------------------
]----------------------------
]----------------------------
]-5-5------------------------
]----6-6---3-3--5-5----------


the solo is commin upsoon.

Please rate, thanks.

Sam6o
            
Submit corrections

comments powered by Disqus
↑ Back to top | Darkness Tabs for Get Your Hands Off Of My Woman. Lyrics for acoustic guitar and electric guitar. 1 Tablatures and chords are parodies/interpretations of the original songs. You may use it for private study, scholarship, research or language learning purposes only