» » »

Christmas Time (Don't Let The Bells End) Tabs (ver.1)

Artists:  A B C D E F G H I J K L M N O P Q R S T U V W X Y Z # 

Christmas Time (Don't Let The Bells End) Tabs (ver.1)

Darkness
Rating:
0/5 (0 votes)

Hard to play? Try these video lessons and learn fast.
                hi there was no tab for this one yet so i thought i would tab it
intro:
e--------------------------10---------------------------
b-12b14--14 14-12-10-12-12----12--10 12b14-14-14-10h12p10--h12-14-15-17*----------------------------------------------
g---------------------------------------------------------------
d---------------------------------------------------------------
a---------------------------------------------------------------
e---------------------------------------------------------------

chrous + intro rhythm

e------------2----2-----------------------------------------------
b------------3----3-----------------------------------------------
g------------2--2-2------------------------------------------------
d--7--6---4--0--2-0--2--------------------------------------------------
a--7--6---4-----0----2-----------then repeat--------------------------------------
e--5--4---2----------0--0-2-4--------------------------------------------

verse:

e-------------------------------0-----------------------2----------------
b---------------------------3-------------3----2-----0--3--------2----------
g--2---1----4---2-----2---2---2---------2----2-----2----2----2-4--2---------------
d--2----------------0---0-------------0----0-----0------0-------------------
a--0--------------------------------------------------------------------
e----------------------------------------------------------------------

pre chorus
e-----------------------------------------------------------
b-----------------------------------------------------------
g-----------------------------------------------------------
d-----------------------------------------------------------
a----7-------------------------------------------------------
e-10----7-7----5---7-7 -9-9-10----------------------------------------

solo1

e---------------------------------------------------------------------------------------------
b------------------------------------------------------------------------------------------------
g-------------------------------------7-----------------------9------------------------------7-9--
d---11--11--11p--9---------------9--11---9-----7--9-11-11--11---11-9---------------------9-11------------
a------------------12----11-12----------------------------------------12-----------11-12----------
e---------------------------------------------------------------------------------------------

bit before solo 2

e---------------------------------------------------------------------
b---------------------------------------------------------------------
g---------2-----------------------------------------------2--------------
d---------2-----------------------------------------------2--------------
a---------0-----------------------------------------------0--------------
e---2--0----------7-9--10-10-10-12-12-12--14-14-16-16-16--------------------

thats all i have tabbed so far but hopefully i will have the second solo tabbed soon ok
            
Hard to play? Try these video lessons and learn fast. | Correct




comments powered by Disqus
↑ Back to top | Tablatures and chords are parodies/interpretations of the original songs. You may use it for private study, scholarship, research or language learning purposes only