» » »

Christmas Time Tabs (ver.1)

Artists:  A B C D E F G H I J K L M N O P Q R S T U V W X Y Z # 

Christmas Time Tabs (ver.1)

Darkness
Rating:
4/5 (12 votes)

Hard to play? Try these video lessons and learn fast.
                HI!  GUITAR 2 PLAYS THE CHORDS ALONG THE TOP OF THE TAB

THE DARKNESS
CHRISTMAS TIME

^ BEND UP TO THAT NOTE 

INTRO GUITAR 1! GUITAR 2 PLAYS POWER CHORDS!

     A  Ab  F#     D  A          D            B  E
    E---------------------------------------------
    B-14-14-12H14P12--14-12H14P12-15-14H15P14-12--
    G---------------------------------------------
    D---------------------------------------------
    A---------------------------------------------
    E---------------------------------------------

     F# Ab  A        Ab       F#        D A           D              E[HIGH]
    E--------------------------------------------------------------------
    B-10-12-12^14-12^14-12^14-12^14-12P10-14-12H14P12-15-14H15P14-15^17--
    G--------------------------------------------------------------------
    D--------------------------------------------------------------------
    A--------------------------------------------------------------------
    E--------------------------------------------------------------------

THE CHORUS IS EXACTLY THE SAME AS WHAT GUITAR 2 PLAYS IN THE INTRO!

IF U DONT NO THE CHORDS, HERE THEY ARE: THIS IS HOW THE CHORUS IS PLAYED!

     A  Ab  F# D A  D  B   E F# Ab A  Ab F#  D  A  D  E[HIGH]
    E-----------------------------------------------------
    B-----------------------------------------------------
    G----------7-----7--4---------------------7-----7--9--
    D-7--6--4--7--7--7--4---2--4--6--7--6--4--7--7--7--9--
    A-7--6--4--5--7--5--2---2--4--6--7--6--4--5--7--5--7--
    E-5--4--2-----5---------0--2--4--5--4--2-----5--------

THERE U GO! DONT FORGET 2 RATE! ENJOY!
            
Hard to play? Try these video lessons and learn fast. | Correct




comments powered by Disqus
↑ Back to top | Tablatures and chords are parodies/interpretations of the original songs. You may use it for private study, scholarship, research or language learning purposes only