» » »

Darkness, Christmas Time Bass tabs (ver.1)

Artists:  A B C D E F G H I J K L M N O P Q R S T U V W X Y Z # 

Christmas Time Bass tabs (ver.1)

Darkness Tabs
 Rating:
4.2/5 (5 votes)
Christmas Time lessons Tabs too difficult? Try these video lessons and learn fast
                This is my interpretation of the song I hope its right. If not please re-tab it correct thanks.

Bassist: Frankie Poullain

Standard Tuning
Intro/Chorus
|-----------|-------------------------------|
|-----------|-------------------------------|    x2
|---------5-|----5--------------------------|
|-5--4--2----|-5-----0---0--2-4----5/-------|
(The 5/ is played the second time only on the intro)

Verse 1
|----------------------------||------------------------------------|
|---------REST---------------||------------------------------------|    x1
|----------------------------||-012*---12*-------------------------|
|----------------------------||-----------12*--12/---77777777--10*-|

Pre-Chorus
|------------------------|
|------------------------|     x1
|-012--------------------|
|------5--7-9-10--12-----|

Chorus x2

Post-Chorus
|-------------------|
|-------------------|
|-------------------|
|-555555555555555---|

Verse 2
|-------------------------------------------------------|
|-------------------------------------------------------|    x2
|----------------777777777777--------------5555555555---|
|---555555555555--------------777777777777--------------|

Pre-Chorus 2   (This only looks slightly different because the first pre-chorus the 7, 9 
10 are played quicker)
|----------------------|
|----------------------|     x1
|-012------------------|
|------5-7-9-10-12-----|

Chorus x2
Post Chorus

Bridge
|---------------------------|
|-----------------------4-6-|    x1
|--------------2--4-5-7-----|
|-2---0-5-------------------|

Guitar solo
|-------------------------------|
|-------------------------------|   x2
|------5-----5------------------|
|---5/-----5-----0--0-2-4-------|

Chorus 2
|-------------------------------------|
|-------------------------------------|   x6
|------------7------7-----------------|
|—7--6--4--------7-----2---2--4-6-----|

Ending
|----------------------|
|----------------------|   x1
|-----7-6--------------|
|-7-6------7*---6*---7*|
            
Submit corrections

comments powered by Disqus
↑ Back to top | Darkness Bass for Christmas Time. Lyrics for acoustic guitar and electric guitar. Tablatures and chords are parodies/interpretations of the original songs. You may use it for private study, scholarship, research or language learning purposes only