>
 >
Christmas Time

Christmas Time Bass Tabs

Darkness - Christmas Time chords, tabs, tablatures, lyrics

Guitar lessons | Add/correct | Request | Top 50 tabs Artists:  A B C D E F G H I J K L M N O P Q R S T U V W X Y Z 0-9

Christmas Time Bass Tabs – Darkness

CD, Sheet music, Poster

Do you like Christmas Time? Share with your friends now
Bass TabsChordsChords v2Chords v3TabsTabs v2Ukulele
This is my interpretation of the song I hope its right. If not please re-tab it correct thanks.

Bassist: Frankie Poullain

Standard Tuning
Intro/Chorus
|-----------|-------------------------------|
|-----------|-------------------------------|    x2
|---------5-|----5--------------------------|
|-5--4--2----|-5-----0---0--2-4----5/-------|
(The 5/ is played the second time only on the intro)

Verse 1
|----------------------------||------------------------------------|
|---------REST---------------||------------------------------------|    x1
|----------------------------||-012*---12*-------------------------|
|----------------------------||-----------12*--12/---77777777--10*-|

Pre-Chorus
|------------------------|
|------------------------|     x1
|-012--------------------|
|------5--7-9-10--12-----|

Chorus x2

Post-Chorus
|-------------------|
|-------------------|
|-------------------|
|-555555555555555---|

Verse 2
|-------------------------------------------------------|
|-------------------------------------------------------|    x2
|----------------777777777777--------------5555555555---|
|---555555555555--------------777777777777--------------|

Pre-Chorus 2   (This only looks slightly different because the first pre-chorus the 7, 9 
10 are played quicker)
|----------------------|
|----------------------|     x1
|-012------------------|
|------5-7-9-10-12-----|

Chorus x2
Post Chorus

Bridge
|---------------------------|
|-----------------------4-6-|    x1
|--------------2--4-5-7-----|
|-2---0-5-------------------|

Guitar solo
|-------------------------------|
|-------------------------------|   x2
|------5-----5------------------|
|---5/-----5-----0--0-2-4-------|

Chorus 2
|-------------------------------------|
|-------------------------------------|   x6
|------------7------7-----------------|
|7--6--4--------7-----2---2--4-6-----|

Ending
|----------------------|
|----------------------|   x1
|-----7-6--------------|
|-7-6------7*---6*---7*|





Comments


Popular Darkness tabs & chords
Stuck In A Rut Bass Tabs
Blind Man 1 Chords
Black Shuck Tabs
Grief Hammer Tabs
Growing On Me Full Version Tabs
I Believe In A Thing Called Love Tabs
I Believe In A Thing Called Love Solos 1 2 Correct Tabs
I Love You Five Times Tabs
Love Is Only A Feeling Tabs
Out Of My Hands Tabs


Song lyrics



↑ Back to top | Tablatures and chords are parodies/interpretations of the original songs. You may use it for private study, scholarship, research or language learning purposes only
© 2014 AZChords.com Contact us | Privacy policy | DMCA | Add/correct tabs | Request tabs | Top 50 tabs