» » »

Darkness, Bald Tabs (ver.2)

Artists:  A B C D E F G H I J K L M N O P Q R S T U V W X Y Z # 

Bald Tabs (ver.2)

Darkness Tabs
 Rating:
4/5 (4 votes)
Bald lessons Tabs too difficult? Try these video lessons and learn fast
                (Intro)
JOHN, I'M ONLY DANCING
David Bowie

Taken from the EMI album Best Of Bowie (2002)


Standard tuning: E A D G

Pause

Fill 1 (1x)
|------|
|-10-\-|
|------|
|------|

Fig. 2 (1x)
| --------------|---------- |-------7----------------------------5--4-----------|
|-5--5--5--5---|--REPEAT-- |-5--5-----------------------------5-------7--7--7---|
| ------------5-|-two-more-| ----------5-\--3--3--3--3---3--3-------------------|
| --------------|---times---|---------------------------3-----------------------|

| ----------------------|---------------|----------|---------------|
|-7-/-10--10--10--10-\-|-5--5--5--5--- |--REPEAT--|-5--5--5--5-----|
| ----------------------|-------------5-|-two-more-|---------------|
| ----------------------|---------------|---times---|--------------|

Fig. 3 (1x)
|----------------------7--9--10--9--7------------------------9-9-----9-9---|
| -----------7--9--10-------------------10--9--7------7--------------------|
|-7--9--10----------------------------------------10-----7-7-----7-7-------|
|--------------------------------------------------------------------------|

|-----9-9---7--9-|-----9-9-|----------- |---------------------------------10-10----|
|---------79-79--|---------|---REPEAT-- |-----10-10-----10-10------10-10-----------|
|-7-7------------|-7-7-----|-three-more-|-8-8-------8-8--------8-8-----------------|
|----------------|--------- |---times----|-----------------------------------------|

|---------------------------------------------12-12---------|
|-10-10-------12-12-------12-12--------12-12-------12-\-----|
|-------10-10-------10-10--------10-10----------------------|
|-----------------------------------------------------------|

Fig. 4a (1x)
|------------------------------------------------|
| 7------7------7-7-75--------7-------7-5-5-5----|
|-------------0-------70-------------------------|
|------------------------------------------------|

Pause
Fill 1 (1x)
Fig. 2 (1x)
Fig. 3 (1x)

Fig. 4b (1x)
|------------------------|
| -7------7------7-7-75--|
|-------------0--------0-|
|------------------------|

Fig. 3 (1x)

Fill 2 (1x)
|------------------------|
|-7------7------7-7-75-- |
|-------------0--------7-|
|------------------------|

Fig. 4c (10x)
| --------------------------|
|--------7------7-7-75------|
|-0-----------0--------7----|
| --------------------------|

End
|-------------------|
|------5------------|
|-0-----------------|
|-------------------|

Pause until end
            
Submit corrections

comments powered by Disqus
↑ Back to top | Darkness Tabs for Bald. Lyrics for acoustic guitar and electric guitar. Tablatures and chords are parodies/interpretations of the original songs. You may use it for private study, scholarship, research or language learning purposes only