» » »

Darkness, Bald Tabs (ver.1)

Artists:  A B C D E F G H I J K L M N O P Q R S T U V W X Y Z # 

Bald Tabs (ver.1)

Darkness Tabs
 Rating:
4.7/5 (12 votes)
Bald lessons Tabs too difficult? Try these video lessons and learn fast
1
                
Tuning: Drop-D.
Note: Intro/Bridge parts are in STANDARD TUNING.

Intro/Bridge
e|------------------0---0---0---0---------------------0---0---0---0-----|
B|--1---1---0---0---------------------1---1---0---0---------------------|
G|----------------------------------------------------------------------|
D|----2---2---2---2---2---2---2---2-----2---2---2---2---2---2---2---2---|
A|----------------------------------------------------------------------|
E|-0---------------------------------3----------------------------------|

e|------------------0---0---0---0---------------------0---0---0---0-----|
B|--1---1---0---0---------------------1---1---0---0---------------------|
G|----------------------------------------------------------------------|
D|----2---2---2---2---2---2---2---2-----2---2---2---2---2---2---2---2---|
A|-0---------------------------------3----------------------------------|
E|----------------------------------------------------------------------| 2x


Chorus
e|-------------------------------------------------------|
B|-------------------------------------------------------|
G|-------------------------------------------------------|
D|-------------------------------------------------------|
A|-0h2-2-2--10--5-7-5-7-----0h2-2-2--10--5-7v-7-5--------|
D|-0h2-2-2--10--5-7-5-7-----0h2-2-2--10--5-7v-7-5--------|

e|-------------------------------------------------------|
B|-------------------------------------------------------|
G|-------------------------------------------------------|
D|-------------------------------------------------------|
A|-0h2-2-2--10--5-7-5-7-----5-5-5-5--12-12-12-12-12------|
D|-0h2-2-2--10--5-7-5-7-----5-5-5-5--12-12-12-12-12------|


Verse
     It would appear..                His hair at an alarming pace..
e|-----------------------------------------------------------------|
B|------3-----------------------------------3----------------------|
G|------2-----0-------------------0---------2-----0----------------|
D|------0------0-------------------0--------0------0---------------|
A|-2----0-2----------7-----7------------2---0-2---------7-----7----|
D|-2------2------5v--7--5v-7---------5v-2-----2------5v-7--5v-7----|

       He's losing his..                               His libido-downsized..
e|---------------------------------------------------------------------------|
B|---------------------------------------------------------------------------|
G|---------------------------------------------------------------------------|
D|------7-9-7-9--7-9---------------------------7-9-7-9--7-9------------------|
A|-5-2--5-7-5-7--5-7--5-7--5-7-5-7--5-7---5-2--5-7-5-7--5-7--5-7--5-7-5-7-7--|
D|-5-2----------------5-7--5-7-5-7--5-7---5-2----------------5-7--5-7-5-7-7--|


Intro/Bridge
     Not for me, not for me..          Not for me, not for me..
e|------------------0---0---0---0---------------------0---0---0---0-----|
B|--1---1---0---0---------------------1---1---0---0---------------------|
G|----------------------------------------------------------------------|
D|----2---2---2---2---2---2---2---2-----2---2---2---2---2---2---2---2---|
A|----------------------------------------------------------------------|
E|-0---------------------------------3----------------------------------|

                                     It's not for me you understand..
e|------------------0---0---0---0---------------------0---0---0---0-----|
B|--1---1---0---0---------------------1---1---0---0---------------------|
G|----------------------------------------------------------------------|
D|----2---2---2---2---2---2---2---2-----2---2---2---2---2---2---2---2---|
A|-0---------------------------------3----------------------------------|
E|----------------------------------------------------------------------|


Chorus
     Bald!                      Bald he is destined to be..
e|-------------------------------------------------------|
B|-------------------------------------------------------|
G|-------------------------------------------------------|
D|-------------------------------------------------------|
A|-0h2-2-2--10--5-7-5-7-----0h2-2-2--10--5-7v-7-5--------|
D|-0h2-2-2--10--5-7-5-7-----0h2-2-2--10--5-7v-7-5--------|

     Bald!                           It's him instead of me..
e|-------------------------------------------------------|
B|-------------------------------------------------------|
G|-------------------------------------------------------|
D|-------------------------------------------------------|
A|-0h2-2-2--10--5-7-5-7-----5-5-5-5--12-12-12-12-12------|
D|-0h2-2-2--10--5-7-5-7-----5-5-5-5--12-12-12-12-12------|


VERSE
INTRO/BRIDGE
CHORUS 2x


Intro/Bridge
e|------------------0---0---0---0---------------------0---0---0---0-----|
B|--1---1---0---0---------------------1---1---0---0---------------------|
G|----------------------------------------------------------------------|
D|----2---2---2---2---2---2---2---2-----2---2---2---2---2---2---2---2---|
A|----------------------------------------------------------------------|
E|-0---------------------------------3----------------------------------|

e|------------------0---0---0---0---------------------0---0---0---0-----|
B|--1---1---0---0---------------------1---1---0---0---------------------|
G|----------------------------------------------------------------------|
D|----2---2---2---2---2---2---2---2-----2---2---2---2---2---2---2---2---|
A|-0---------------------------------3----------------------------------|
E|----------------------------------------------------------------------| 2x

   Not for me, not for me..          Not for me, not for me.. heaven forbid..
e|------------------0---0---0---0---------------------0---0---0---0-----|
B|--1---1---0---0---------------------1---1---0---0---------------------|
G|----------------------------------------------------------------------|
D|----2---2---2---2---2---2---2---2-----2---2---2---2---2---2---2---2---|
A|----------------------------------------------------------------------|
E|-0---------------------------------3----------------------------------|
 |
e|----------------------------------------------------------------------|
B|----------------------------------------------------------------------|
G|----------------------------------------------------------------------|
D|----------------------------------------------------------------------|
A|-2-2-2-2-2-2-2-2-2-2-2-2-2-2-2-----5-5-5-5-5-5-5-5-5-5-5-5-5-5-5-5-5--|
D|-2-2-2-2-2-2-2-2-2-2-2-2-2-2-2--4--5-5-5-5-5-5-5-5-5-5-5-5-5-5-5-5-5--|

                                    It's not for me you understand..
e|------------------0---0---0---0---------------------0---0---0---0-----|
B|--1---1---0---0---------------------1---1---0---0---------------------|
G|----------------------------------------------------------------------|
D|----2---2---2---2---2---2---2---2-----2---2---2---2---2---2---2---2---|
A|-0---------------------------------3----------------------------------|
E|----------------------------------------------------------------------|
 |
e|------------------------------------------------------------------------|
B|------------------------------------------------------------------------|
G|------------------------------------------------------------------------|
D|------------------------------------------------------------------------|
A|-7-7-7-7-7-7-7-7-7-7-7-7-7-7-10-10-10-10-10-10-10-10-10-10-10-10-10-10--|
D|-7-7-7-7-7-7-7-7-7-7-7-7-7-7-10-10-10-10-10-10-10-10-10-10-10-10-10-10--|


CHORUS 3x
INTRO/BRIDGE (fade out)


Listen to the song for timing, etc..
            
Submit corrections

comments powered by Disqus
↑ Back to top | Darkness Tabs for Bald. Lyrics for acoustic guitar and electric guitar. 1 Tablatures and chords are parodies/interpretations of the original songs. You may use it for private study, scholarship, research or language learning purposes only