>
 >
Bells Of Notre Dame

Bells Of Notre Dame Guitar Tabs

Dark Moor - Bells Of Notre Dame chords, tabs, tablatures, lyrics

Guitar lessons | Add/correct | Request | Top 50 tabs Artists:  A B C D E F G H I J K L M N O P Q R S T U V W X Y Z 0-9

Bells Of Notre Dame Guitar Tabs – Dark Moor

CD, Sheet music, Poster

Do you like Bells Of Notre Dame? Share with your friends now
Tabs
                               BELLS OF NOTRE DAME
                                  By Dark Moor
                    (From  Album THE HALL OF THE OLDEN DREAMS)









Tune 1/2 step down

1.
|-----------------------------------------------------------------------|
|-----------------------------------------------------------------------|
|-----------------------------------------------------------------------|
|--------3-------------------3-------------------3------------T---------|
|--------1-------------------1-------------------1-----------13-10p7----|
|-0--0-0---3-1-0-1-3--0--0-0---3-1-0-1-3--0--0-0---3-1-0-1-3------------|


                                      2.
                            T
|--------------------------15-12p9h12-----------------------5-----------7---|
|----------------T----------------------------------5-8-7-8---8-7-5-7-----7-|
|----------T----15-12p9h12--------------------------------------------4-----|
|--T------14p11------------------------4--2---------------------------------|
|-16-10p7------------------------------2--0--5--4---------------------------|
|--------------------------------------------3--2---------------------------|


|---------5-----------12----------------10---------------12----------------10----------|
|-5-8-7-8---8-7-5/9------12-10-13-12-13----13-12-10-12-9----12-10-13-12-13----13-12-13-|
|-------------------9------------------------------------------------------------------|
|--------------------------------------------------------------------------------------|
|--------------------------------------------------------------------------------------|
|--------------------------------------------------------------------------------------|


|------------8--------------------7-----------------5-----------------------------------|
|-8-12-10-12---12-10-12-7-10-8-10---10-8-10-5-8-7-8---8-7-8-4-0-0-0-5-0-0-0-7-0-0-0-8-0-|
|---------------------------------------------------------------------------------------|
|---------------------------------------------------------------------------------------|
|---------------------------------------------------------------------------------------|
|---------------------------------------------------------------------------------------|


|---------------------------------------------------------------------------|
|-0-0-10p0-13p0-12p0-10p0-7p0-10p0-8p0-7p0-5p0-5h7h8p7p5p0-5p0-5h7h8p7p5p0--|
|---------------------------------------------------------------------------|
|---------------------------------------------------------------------------|
|---------------------------------------------------------------------------|
|---------------------------------------------------------------------------|


|------------------------------------------------------------------------|
|-7p0-13p0-12p0-10p0-7p0-10p0-8p0-7p0-5p0-5h7h8p7p5p0-5p0-5h7h8p7p5p0----|
|------------------------------------------------------------------------|
|------------------------------------------------------------------------|
|------------------------------------------------------------------------|
|------------------------------------------------------------------------|


|-7p0-13p0-12p0-10p0-7p0-10p0-8p0-7p0-5p0-5h7h8p7p5p0-5p0-5h7h8p7p5p0----|
|------------------------------------------------------------------------|
|------------------------------------------------------------------------|
|------------------------------------------------------------------------|
|------------------------------------------------------------------------|
|------------------------------------------------------------------------|


|-7p0-13p0-12p0-10p0-7p0-10p0-8p0-7p0-5p0-5h7h8p7p5p0-5p0-5h7h8p7p5p0----|
|------------------------------------------------------------------------|
|------------------------------------------------------------------------|
|------------------------------------------------------------------------|
|------------------------------------------------------------------------|
|------------------------------------------------------------------------|


|---------------------------------------------------------------------------|
|-8p0-8h10h12p10p8p0-8p0-8h10h12p10p8p0-7p0-7h8h10p8p7p0-5p0-5h7h8p7p5p0----|
|---------------------------------------------------------------------------|
|---------------------------------------------------------------------------|
|---------------------------------------------------------------------------|
|---------------------------------------------------------------------------|


|---------------------------------------------------------|
|-4p0-5p0-7p0-8p0-4p0-5p0-7p0-8p0-7p0-8p0-10p0-13p0-12----|
|---------------------------------------------------------|
|---------------------------------------------------------|
|---------------------------------------------------------|
|---------------------------------------------------------|

Verse 1
|---------------------------------------------------------------------|
|---------------------------------------------------------------------|
|---------------------------------------------------------------------|
|-2-----5-------------------------------------------------------------|
|-2--2--3-3-3-3-3-3-3-3-3-3-3-3-3-3-3-3-3-3-3-2-2-2-2-----------------|
|-0---------------------------------------------------5-5-5-5-3-3-3-3-|


|---------------------------------------------------------------------|
|---------------------------------------------------------------------|
|-7-------------------------------------------------------------------|
|-7------4---------4-4---------4---------------------------------2----|
|-5------2-2-2-2-2-0-2-2-2-2-2-0-2-3-2---2-------------3-2-------2--2-|
|----5-2-------------------------------5---5-3-2-0-2-3-----5-3-2-0----|


|----------------------------------------------------------------------|
|----------------------------------------------------------------------|
|----------------------------------------------------------------------|
|-5-------------------------------------------------------------4------|
|-3-3-3-3-3-3-3-3-3-3-3-3-3-3-3-3-3-3-3-2-2-2-2-----------------4------|
|-----------------------------------------------5-5-5-5-3-3-3-3-2-3-5--|


|--------------------------------------------|
|--------------------------------------------|
|--------------------------------------------|
|-4---------4-4---------4-4-------------4----|
|-2-2-2-2-2-0-2-2-2-2-2-0-2-2-2-2-2-2-2-2----|
|--------------------------------------------|


|------------------------|
|------------------------|
|------------------------|
|-5-----7--9--5-----4----|
|-3--5--5--7--3--4--2----|
|----3-----------2-------|


|-------------------------------------------------------------------------|
|-------------------------------------------------------------------------|
|-------------------------------------------------------------------------|
|-------------------------------------------------------------------------|
|-------------------------2-2-2-2-2-2-2--2-2-5-2--------------------------|
|-0-0-0-0-0-0-0--0-0-3-0-------------------------2-2-2-2-2-2-2--2-2-5-2---|


|------------------------------------------------------------------------|
|------------------------------------------------------------------------|
|------------------------------------------------------------------------|
|------------------------------------------------------------------------|
|-4-4-4-4-4-4-4--4-4-7-4-----------------------2-2-2-2-2-2-2--2-2-2-2-2--|
|-----------------------0-0-0-0-0-0-0--0-0-3-0---------------------------|


|-------------------------------------------------|
|-------------------------------------------------|
|-------------------------------------------------|
|--------------------7----------------------------|
|-5-5-5-5-5-5-5--5-5---5------------------7-------|
|------------------------5-5-5-5-5-5--5-5-5-------|


|---------------------------------------------------------------------|
|---------------------------------------------------------------------|
|---------------------------------------------------------------------|
|----------9----------9-------------------------------7----------7----|
|----------7----------7---------9----------9--5-5-5-5-5--5-5-5-5-5----|
|-0-0-0-0----0-0-0-0----7-7-7-7-7--7-7-7-7-7--------------------------|


|-----------------------------------------------------------------------|
|-----------------------------------------------------------------------|
|-----------------------------------------------------------------------|
|-----------------------------------------------------------------------|
|---------7----------7-3-3-3-3-3-3-3-3-3-3-3-3-3-3-3-3------------------|
|-5-5-5-5-5--5-5-5-5-5---------------------------------3-3-3-3-3-3-3-3--|


|------------------------------|
|------------------------------|
|------------------------------|
|-------------------------4----|
|-------------------------2----|
|-3-3-3-3-3-3-3-3-5-3-2-0------|


Chorus
|----------------------------------------------------------------|
|----------------------------------------------------------------|
|-9--5--7--9--9-7-5----------------------------------------------|
|-9--5--7--9--9-7-5--5--3---------3---------3-----3-----3-----2--|
|-7--3--5--7--7-5-3--5--3---------3---------3-----3-----3-----2--|
|--------------------3--1-1-1-1-1-1-1-1-1-1-1-1-1-1-1-1-1-1-1-0--|


|--------------------------------|
|--------------------------------|
|-----9--5--7---------5-----4----|
|-----9--5--7--5------5--7--4----|
|-----7--3--5--5------3--4--2----|
|-0-0----------3--3-2------------|



|-----------------------------------------------------------------------|
|-----------------------------------------------------------------------|
|-----------------------------------------------------------------------|
|--------3-------------------3-------------------3----------------------|
|--------1-------------------1-------------------1-----------13-10p7----|
|-0--0-0---3-1-0-1-3--0--0-0---3-1-0-1-3--0--0-0---3-1-0-1-3------------|



1.                          T           2.
|--------------------------15-12p9h12-|---------------|
|----------------T--------------------|---------------|
|----------T----15-12p9h12------------|---------------|
|--T------14p11-----------------------|-4--2----------|
|-16-10p7-----------------------------|-2--0---5--4---|
|-------------------------------------|--------3--2---|




|------------7-12p7-9p6--------------------------7-12p7-14----------17------------|
|----------8------------8----------------------8----------------------------------|
|--------9----------------9-6----------------9-------------16-15-16-----16-15-16--|
|------9----------------------8----8-------9--------------------------------------|
|-7-10--------------------------10----7-10----------------------------------------|
|---------------------------------------------------------------------------------|


|------------7-12p7-9p6-------------------------7-12p7--------------15----------17--|
|----------8------------8---------------------8----------19-17-16-17----17-16-17----|
|--------9----------------9-6---------------9---------------------------------------|
|------9----------------------8----8------9-----------------------------------------|
|-7-10--------------------------10---7-10-------------------------------------------|
|-----------------------------------------------------------------------------------|


|----------18----------------------------------------------------------------------|
|-17-16-17----17-16-17-12p0-12p0-10p0-10p0-8p0-8p0-7p0-7p0-10p0-10p0-8p0-8p0-7p0---|
|----------------------------------------------------------------------------------|
|----------------------------------------------------------------------------------|
|----------------------------------------------------------------------------------|
|----------------------------------------------------------------------------------|


|--------------------------------------------------------------------|
|-7p0-5p0-5p0--------------------------------------------------------|
|-------------------------9-------------------9----------------------|
|---------------------7-9---9-7-9---------7-9---9-7-9---------7-9----|
|--------------7-9-10--------------7-9-10--------------7-9-10--------|
|--------------------------------------------------------------------|


|--------------------------------------------------------------------|
|--------------------------------------------------------------------|
|-9------------------------------------------------------------------|
|---9-7-9-5-7-4-5---4------------------------------------------------|
|-----------------7---6-7-2-3---2----------------------------2~------|
|-----------------------------5---3-5-2-3-0-2-3-5-3-2-3-1~-----------|


2x
|-----------------------------------------------------------------------|
|-----------------------------------------------------------------------|
|------------9------------------9-------------------9-7-5---------------|
|--------7-9---9-7-9--------7-9---9-7-9-----5-7-9-5-----------4-5-7-4---|
|-7-9-10-------------7-9-10-------------7-9---------------5-7-----------|
|-----------------------------------------------------------------------|


|------------------------------------------------------------|
|------------------------------------------------------------|
|-7-5-4-------------5-4-2-------------4-2--------------------|
|-----------2-4-5-2-----------1-2-4-------5-5-4-4-2-2-1-1----|
|-------3-5---------------2-4-------2------------------------|
|------------------------------------------------------------|


Verse 2

Chorus

end.





Comments


Popular Dark Moor tabs & chords
Gara Jonay Chords
Beyond The Fire Tabs
Hand In Hand Tabs
Maid Of Orleans Tabs
The Kings Sword Intro Tabs
Vivaldis Winter Intro Tabs


Song lyrics



↑ Back to top | Tablatures and chords are parodies/interpretations of the original songs. You may use it for private study, scholarship, research or language learning purposes only
© 2014 AZChords.com Contact us | Privacy policy | DMCA | Add/correct tabs | Request tabs | Top 50 tabs