>
 >
Vobiscum Satanas

Vobiscum Satanas Guitar Tabs

Dark Funeral - Vobiscum Satanas chords, tabs, tablatures, lyrics

Guitar lessons | Add/correct | Request | Top 50 tabs Artists:  A B C D E F G H I J K L M N O P Q R S T U V W X Y Z 0-9

Vobiscum Satanas Guitar Tabs – Dark Funeral

CD, Sheet music, Poster

Do you like Vobiscum Satanas? Share with your friends now
Tabs

Ver. 0.9 (02/04/16)

Tuning : 1 and Half down


Part_A
  Repeat it 6 times.
#||---------------------------------------|--------------------------------------|
#||-------------__3__---------------------|--------------------------------------|
#||o---__3__---|--|--|--7--7--7--6--6--6--|--3--3--3--3--3--3--3--3--3--3--3--3--|
#||o--|--|--|--4--4--4--|__|__|--|__|__|--|--|__|__|--|__|__|--|__|__|--|__|__|--|
#||---2--2--2--------------3--------3-----|-----3--------3--------3--------3-----|
#||---------------------------------------|--------------------------------------|
 ||   1        2        3        4        |  1        2        3        4        |
 ||                                       |                                      |
 ||   *Play with a whole note twice.      |                                      |
#||---------------------------------------|--3--3--3--3--3--3--3--3--3--3--3--3--|
#||---------------------------------------|--3--3--3--3--3--3--3--3--3--3--3--3--|
#||o--4---4----4---4----4---4----4---4----|--3--3--3--3--3--3--3--3--3--3--3--3--|
#||o--4---4----4---4----4---4----4---4----|--5--5--5--5--5--5--5--5--5--5--5--5--|
#||---2---2----2---2----2---2----2---2----|--|__|__|--|__|__|--|__|__|--|__|__|--|
#||---------------------------------------|-----3--------3--------3--------3-----|
      1        2        3        4           1        2        3        4


|--------------------------------------|---------------------------------------||#
|------------__3__---------------------|---------------------------------------||#
|---__3__---|--|--|--7--7--7--6--6--6--|--3--3--3--3--3--3--6--6--6--6--6--6--o||#
|--|--|--|--4--4--4--|__|__|--|__|__|--|--|__|__|--|__|__|--|__|__|--|__|__|--o||#
|--2--2--2--------------3--------3-----|-----3--------3--------3--------3------||#
|--------------------------------------|---------------------------------------||#
|  1        2        3        4        |  1        2        3        4         ||
|                                      |                                       ||
|  *Play with a whole note twice.      |                                       ||
|--------------------------------------|--3--3--3--3--3--3---__3__----__3__----||#
|--------------------------------------|--3--3--3--3--3--3--|--|--|--|--|--|---||#
|--4---4----4---4----4---4----4---4----|--3--3--3--3--3--3--6--6--6--6--6--6--o||#
|--4---4----4---4----4---4----4---4----|--5--5--5--5--5--5--6--6--6--6--6--6--o||#
|--2---2----2---2----2---2----2---2----|--|__|__|--|__|__|--4--4--4--4--4--4---||#
|--------------------------------------|-----3--------3------------------------||#
   1        2        3        4           1        2        3        4    (End of Part_A)




Part_B
  Repeat it 4 times.
#||---------------------------------------|-------------|------------|-----------|
#||---------------------------------------|-------------|------------|-----------|
#||o--4---4----4---4----4---4----4---4----|----o-/------|----o-/-----|---o-/-----|
#||o--4---4----4---4----4---4----4---4----|-----/-o-----|-----/-o----|----/-o----|
#||---2---2----2---2----2---2----2---2----|-------------|------------|-----------|
#||---------------------------------------|-------------|------------|-----------|
      1        2        3        4
 ______________
|1.3.
|--------------------------------------|--------------------------------------|
|--------------------------------------|---__3__----__3__----__3__----__3__---|
|--3--3--3--3--3--3--3--3--3--3--3--3--|--|--|--|--|--|--|--|--|--|--|--|--|--|
|--|__|__|--|__|__|--|__|__|--|__|__|--|--4--4--4--4--4--4--4--4--4--4--4--4--|
|-----3--------3--------3--------3-----|--------------------------------------|
|--------------------------------------|--------------------------------------|
   1        2        3        4           1        2        3        4


|--------------------------------------|---------------------------------------||
|---__3__----__3__----__3__----__3__---|---------------------------------------||
|--|--|--|--|--|--|--|--|--|--|--|--|--|---__3__----__3__----__3__----__3__---o||
|--1--1--1--1--1--1--1--1--1--1--1--1--|--|--|--|--|--|--|--|--|--|--|--|--|--o||
|--------------------------------------|--1--1--1--1--1--1--1--1--1--1--1--1---||
|--------------------------------------|---------------------------------------||
   1        2        3        4           1        2        3        4
 ______________
|2.4.
|--------------------------------------|--------------------------------------|
|--3--3--3--3--3--3--3--3--3--3--3--3--|--------------------------------------|
|--|__|__|--|__|__|--|__|__|--|__|__|--|--3--3--3--3--3--3--3--3--3--3--3--3--|
|-----3--------3--------3--------3-----|--|__|__|--|__|__|--|__|__|--|__|__|--|
|--------------------------------------|-----3--------3--------3--------3-----|
|--------------------------------------|--------------------------------------|
   1        2        3        4           1        2        3        4


|--------------------------------------|---------------------------------------||#
|---__3__----__3__----__3__----__3__---|---------------------------------------||#
|--|--|--|--|--|--|--|--|--|--|--|--|--|---__3__----__3__----__3__----__3__---o||#
|--5--5--5--5--5--5--5--5--5--5--5--5--|--|--|--|--|--|--|--|--|--|--|--|--|--o||#
|--------------------------------------|--5--5--5--5--5--5--5--5--5--5--5--5---||#
|--------------------------------------|---------------------------------------||#
   1        2        3        4           1        2        3        4    (End of Part_B)




Part C - 4 times Repeat
#||---------------------------------------|--------------------------------------|
#||---------------------------------------|--------------------------------------|
#||o--4---4----4---4----4---4----4---4----|-----------------o-/------------------|
#||o--4---4----4---4----4---4----4---4----|------------------/-o-----------------|
#||---2---2----2---2----2---2----2---2----|--------------------------------------|
#||---------------------------------------|--------------------------------------|
      1        2        3        4           1        2        3        4
 ______________
|1.3.
|---__3__----__3__----__3__----__3__---|---__3__----__3__----__3__----__3__----||
|--|--|--|--|--|--|--|--|--|--|--|--|--|--|--|--|--|--|--|--|--|--|--|--|--|---||
|--4--4--4--4--4--4--4--4--4--4--4--4--|--7--7--7--7--7--7--6--6--6--6--6--6--o||
|--5--5--5--5--5--5--5--5--5--5--5--5--|--5--5--5--5--5--5--5--5--5--5--5--5--o||
|--------------------------------------|---------------------------------------||
|--------------------------------------|---------------------------------------||
   1        2        3        4           1        2        3        4
 ______________
|2.4.
|---__3__----__3__----__3__----__3__---|---__3__----__3__----__3__----__3__----||#
|--|--|--|--|--|--|--|--|--|--|--|--|--|--|--|--|--|--|--|--|--|--|--|--|--|---||#
|--7--7--7--7--7--7--7--7--7--7--7--7--|--6--6--6--6--6--6--6--6--6--6--6--6--o||#
|--5--5--5--5--5--5--5--5--5--5--5--5--|--5--5--5--5--5--5--5--5--5--5--5--5--o||#
|--------------------------------------|---------------------------------------||#
|--------------------------------------|---------------------------------------||#
   1        2        3        4           1        2        3        4    (End of Part C)


Part C' - 4 times Repeat
#||----__3__----__3__----__3__----__3__---|--------------------------------------|
#||---|--|--|--|--|--|--|--|--|--|--|--|--|--------------------------------------|
#||o--4--4--4--4--4--4--4--4--4--4--4--4--|-----------------o-/------------------|
#||o--4--4--4--4--4--4--4--4--4--4--4--4--|------------------/-o-----------------|
#||---2--2--2--2--2--2--2--2--2--2--2--2--|--------------------------------------|
#||---------------------------------------|--------------------------------------|
      1        2        3        4           1        2        3        4
 ______________
|1.3.
|---__3__----__3__----__3__----__3__---|---__3__----__3__----__3__----__3__----||
|--|--|--|--|--|--|--|--|--|--|--|--|--|--|--|--|--|--|--|--|--|--|--|--|--|---||
|--4--4--4--4--4--4--4--4--4--4--4--4--|--7--7--7--7--7--7--6--6--6--6--6--6--o||
|--5--5--5--5--5--5--5--5--5--5--5--5--|--5--5--5--5--5--5--5--5--5--5--5--5--o||
|--------------------------------------|---------------------------------------||
|--------------------------------------|---------------------------------------||
   1        2        3        4           1        2        3        4
 ______________
|2.4.
|---__3__----__3__----__3__----__3__---|---__3__----__3__----__3__----__3__----||#
|--|--|--|--|--|--|--|--|--|--|--|--|--|--|--|--|--|--|--|--|--|--|--|--|--|---||#
|--7--7--7--7--7--7--7--7--7--7--7--7--|--6--6--6--6--6--6--6--6--6--6--6--6--o||#
|--5--5--5--5--5--5--5--5--5--5--5--5--|--5--5--5--5--5--5--5--5--5--5--5--5--o||#
|--------------------------------------|---------------------------------------||#
|--------------------------------------|---------------------------------------||#
   1        2        3        4           1        2        3        4    (End of Part C)



Part D - 4 times Repeat
#||---------------------------------------|--------------------------------------|
#||---------------------------------------|--7--7--7--7--7--7--7--7--7--7--7--7--|
#||o--4--4--4--4--4--4--4--4--4--4--4--4--|--|__|__|--|__|__|--|__|__|--|__|__|--|
#||o--|__|__|--|__|__|--|__|__|--|__|__|--|-----3--------3--------3--------3-----|
#||------3--------3--------3--------3-----|--------------------------------------|
#||---------------------------------------|--------------------------------------|
      1        2        3        4           1        2        3        4


|--------------------------------------|---------------------------------------|
|--8--8--8--8--8--8--8--8--8--8--8--8--|--10-10-10-10-10-10-10-10-10-10-10-10--|
|--|__|__|--|__|__|--|__|__|--|__|__|--|--|__|__|--|__|__|--|__|__|--|__|__|---|
|-----3--------3--------3--------3-----|-----3--------3--------3--------3------|
|--------------------------------------|---------------------------------------|
|--------------------------------------|---------------------------------------|
   1        2        3        4           1        2        3        4


|--------------------------------------|--------------------------------------|
|--------------------------------------|--8--8--8--8--8--8--8--8--8--8--8--8--|
|--5--5--5--5--5--5--5--5--5--5--5--5--|--|__|__|--|__|__|--|__|__|--|__|__|--|
|--|__|__|--|__|__|--|__|__|--|__|__|--|-----3--------3--------3--------3-----|
|-----3--------3--------3--------3-----|--------------------------------------|
|--------------------------------------|--------------------------------------|
   1        2        3        4           1        2        3        4


|--------------------------------------|---------------------------------------||#
|--7--7--7--7--7--7--7--7--7--7--7--7--|--5--5--5--5--5--5--5--5--5--5--5--5---||#
|--|__|__|--|__|__|--|__|__|--|__|__|--|--|__|__|--|__|__|--|__|__|--|__|__|--o||#
|-----3--------3--------3--------3-----|-----3--------3--------3--------3-----o||#
|--------------------------------------|---------------------------------------||#
|--------------------------------------|---------------------------------------||#
   1        2        3        4           1        2        3        4    (End of Part D)




Part E - 4 times Repeat
#||---------------------------------------|--------------------------------------|
#||----__3__----__3__----__3__----__3__---|--------------------------------------|
#||o--|--|--|--|--|--|--|--|--|--|--|--|--|-----------------o-/------------------|
#||o--9--9--9--9--9--9--9--9--9--9--9--9--|------------------/-o-----------------|
#||---9--9--9--9--9--9--9--9--9--9--9--9--|--------------------------------------|
#||---7--7--7--7--7--7--7--7--7--7--7--7--|--------------------------------------|
      1        2        3        4           1        2        3        4

                                            __3__    __3__    __3__    __3__ 
|---__3__----__3__----__3__----__3__----|--|--|--|--|--|--|--|--|--|--|--|--|---|
|--|--|--|--|--|--|--|--|--|--|--|--|---|--10-10-10-10-10-10-10-10-10-10-10-10--|
|--12-12-12-12-12-12-12-12-12-12-12-12--|--11-11-11-11-11-11-11-11-11-11-11-11--|
|--9--9--9--9--9--9--9--9--9--9--9--9---|--9--9--9--9--9--9--9--9--9--9--9--9---|
|---------------------------------------|---------------------------------------|
|---------------------------------------|---------------------------------------|
   1        2        3        4             1        2        3        4       


|---__3__----__3__----__3__----__3__---|-------------|------------|------------||#
|--|--|--|--|--|--|--|--|--|--|--|--|--|-------------|------------|------------||#
|--12-12-12-12-12-12-12-12-12-12-12-12-|----o-/------|----o-/-----|---o-/-----o||#
|--10-10-10-10-10-10-10-10-10-10-10-10-|-----/-o-----|-----/-o----|----/-o----o||#
|--------------------------------------|-------------|------------|------------||#
|--------------------------------------|-------------|------------|------------||#
   1        2        3        4                                       (End of Part E)


Part F - 4 times Repeat
#||---------------------------------------|--------------------------------------|
#||-------------__3__---------------------|--------------------------------------|
#||o---__3__---|--|--|--7--7--7--6--6--6--|--3--3--3--3--3--3--3--3--3--3--3--3--|
#||o--|--|--|--4--4--4--|__|__|--|__|__|--|--|__|__|--|__|__|--|__|__|--|__|__|--|
#||---2--2--2--------------3--------3-----|-----3--------3--------3--------3-----|
#||---------------------------------------|--------------------------------------|
 ||   1        2        3        4        |  1        2        3        4        |
 ||                                       |                                      |
 ||                                       |                                      |
#||---------------------------------------|--3--3--3--3--3--3--3--3--3--3--3--3--|
#||---------------------------------------|--3--3--3--3--3--3--3--3--3--3--3--3--|
#||o--4---4----4---4----4---4----4---4----|--3--3--3--3--3--3--3--3--3--3--3--3--|
#||o--4---4----4---4----4---4----4---4----|--5--5--5--5--5--5--5--5--5--5--5--5--|
#||---2---2----2---2----2---2----2---2----|--|__|__|--|__|__|--|__|__|--|__|__|--|
#||---------------------------------------|-----3--------3--------3--------3-----|
      1        2        3        4           1        2        3        4
 ______________
|1.3.
|--------------------------------------|---------------------------------------||
|------------__3__---------------------|---------------------------------------||
|---__3__---|--|--|--7--7--7--6--6--6--|--3--3--3--3--3--3--6--6--6--6--6--6--o||
|--|--|--|--4--4--4--|__|__|--|__|__|--|--|__|__|--|__|__|--|__|__|--|__|__|--o||
|--2--2--2--------------3--------3-----|-----3--------3--------3--------3------||
|--------------------------------------|---------------------------------------||
|  1        2        3        4        |  1        2        3        4         ||
|                                      |                                       ||
|                                      |                                       ||
|--------------------------------------|---__3__----__3__----__3__----__3__----||
|--------------------------------------|--|--|--|--|--|--|--|--|--|--|--|--|---||
|--4---4----4---4----4---4----4---4----|--3--3--3--3--3--3--3--3--3--3--3--3--o||
|--4---4----4---4----4---4----4---4----|--3--3--3--3--3--3--3--3--3--3--3--3--o||
|--2---2----2---2----2---2----2---2----|--1--1--1--1--1--1--1--1--1--1--1--1---||
|--------------------------------------|---------------------------------------||
   1        2        3        4           1        2        3        4
 ______________
|2.4.
|--------------------------------------|---------------------------------------||#
|--------------------------------------|---------------------------------------||#
|--2--2--2--2--2--2--2--2--2--2--2--2--|--3--3--3--3--3--3--3--3--3--3--3--3--o||#
|--|__|__|--|__|__|--|__|__|--|__|__|--|--|__|__|--|__|__|--|__|__|--|__|__|--o||#
|-----3--------3--------3--------3-----|-----3--------3--------3--------3------||#
|--------------------------------------|---------------------------------------||#
|  1        2        3        4        |  1        2        3        4         ||
|                                      |                                       ||
|                                      |                                       ||
|--2--2--2--2--2--2--2--2--2--2--2--2--|--3--3--3--3--3--3--3--3--3--3--3--3---||#
|--2--2--2--2--2--2--2--2--2--2--2--2--|--3--3--3--3--3--3--3--3--3--3--3--3---||#
|--2--2--2--2--2--2--2--2--2--2--2--2--|--3--3--3--3--3--3--3--3--3--3--3--3--o||#
|--4--4--4--4--4--4--4--4--4--4--4--4--|--5--5--5--5--5--5--5--5--5--5--5--5--o||#
|--|__|__|--|__|__|--|__|__|--|__|__|--|--|__|__|--|__|__|--|__|__|--|__|__|---||#
|-----3--------3--------3--------3-----|-----3--------3--------3--------3------||#
   1        2        3        4           1        2        3        4    (End of Part F)


Play Part B - 4 times Repeat

Play Part E - 2 times Repeat


Part D' - 1000 times Repeat
It piles up under an octave with Part D
#||---------------------------------------|--------------------------------------|
#||---------------------------------------|--7--7--7--7--7--7--7--7--7--7--7--7--|
#||o--4--4--4--4--4--4--4--4--4--4--4--4--|--|__|__|--|__|__|--|__|__|--|__|__|--|
#||o--|__|__|--|__|__|--|__|__|--|__|__|--|-----3--------3--------3--------3-----|
#||------3--------3--------3--------3-----|--------------------------------------|
#||---------------------------------------|--------------------------------------|
 ||   1        2        3        4        |  1        2        3        4        |
 ||                                       |                                      |
 ||                                       |                                      |
#||---------------------------------------|--------------------------------------|
#||---------------------------------------|---__3__----__3__----__3__----__3__---|
#||o---__3__----__3__----__3__----__3__---|--|--|--|--|--|--|--|--|--|--|--|--|--|
#||o--|--|--|--|--|--|--|--|--|--|--|--|--|--4--4--4--4--4--4--4--4--4--4--4--4--|
#||---2--2--2--2--2--2--2--2--2--2--2--2--|--------------------------------------|
#||---------------------------------------|--------------------------------------|
      1        2        3        4           1        2        3        4


|--------------------------------------|---------------------------------------|
|--8--8--8--8--8--8--8--8--8--8--8--8--|--10-10-10-10-10-10-10-10-10-10-10-10--|
|--|__|__|--|__|__|--|__|__|--|__|__|--|--|__|__|--|__|__|--|__|__|--|__|__|---|
|-----3--------3--------3--------3-----|-----3--------3--------3--------3------|
|--------------------------------------|---------------------------------------|
|--------------------------------------|---------------------------------------|
|  1        2        3        4        |  1        2        3        4         |
|                                      |                                       |
|                                      |                                       |
|--------------------------------------|---------------------------------------|
|---__3__----__3__----__3__----__3__---|---__3__----__3__----__3__----__3__----|
|--|--|--|--|--|--|--|--|--|--|--|--|--|--|--|--|--|--|--|--|--|--|--|--|--|---|
|--5--5--5--5--5--5--5--5--5--5--5--5--|--7--7--7--7--7--7--7--7--7--7--7--7---|
|--------------------------------------|---------------------------------------|
|--------------------------------------|---------------------------------------|
   1        2        3        4           1        2        3        4       


|--------------------------------------|--------------------------------------|
|--------------------------------------|--8--8--8--8--8--8--8--8--8--8--8--8--|
|--5--5--5--5--5--5--5--5--5--5--5--5--|--|__|__|--|__|__|--|__|__|--|__|__|--|
|--|__|__|--|__|__|--|__|__|--|__|__|--|-----3--------3--------3--------3-----|
|-----3--------3--------3--------3-----|--------------------------------------|
|--------------------------------------|--------------------------------------|
|  1        2        3        4        |  1        2        3        4        |
|                                      |                                      |
|                                      |                                      |
|--------------------------------------|--------------------------------------|
|--------------------------------------|---__3__----__3__----__3__----__3__---|
|---__3__----__3__----__3__----__3__---|--|--|--|--|--|--|--|--|--|--|--|--|--|
|--|--|--|--|--|--|--|--|--|--|--|--|--|--5--5--5--5--5--5--5--5--5--5--5--5--|
|--3--3--3--3--3--3--3--3--3--3--3--3--|--------------------------------------|
|--------------------------------------|--------------------------------------|
   1        2        3        4           1        2        3        4


|--------------------------------------|---------------------------------------||#
|--7--7--7--7--7--7--7--7--7--7--7--7--|--5--5--5--5--5--5--5--5--5--5--5--5---||#
|--|__|__|--|__|__|--|__|__|--|__|__|--|--|__|__|--|__|__|--|__|__|--|__|__|--o||#
|-----3--------3--------3--------3-----|-----3--------3--------3--------3-----o||#
|--------------------------------------|---------------------------------------||#
|--------------------------------------|---------------------------------------||#
|  1        2        3        4        |  1        2        3        4         ||
|                                      |                                       ||
|                                      |                                       ||
|--------------------------------------|---------------------------------------||#
|---__3__----__3__----__3__----__3__---|---__3__----__3__----__3__----__3__----||#
|--|--|--|--|--|--|--|--|--|--|--|--|--|--|--|--|--|--|--|--|--|--|--|--|--|--o||#
|--4--4--4--4--4--4--4--4--4--4--4--4--|--2--2--2--2--2--2--2--2--2--2--2--2--o||#
|--------------------------------------|---------------------------------------||#
|--------------------------------------|---------------------------------------||#
   1        2        3        4           1        2        3        4    (End of Part D')


==== END OF TAB ====





Comments


Popular Dark Funeral tabs & chords
Satanic Blood Bass Tabs
Atrum Regina Intro Tabs
Bloodfrozen Tabs
Enriched By Evil Tabs
Fire Eternal Tabs
In The Sign Of The Horns Tabs
My Dark Desires 1 Tabs
Open The Gates Tabs
Remember The Fallen Tabs
Shadows Over Transylvania Tabs


Song lyrics



↑ Back to top | Tablatures and chords are parodies/interpretations of the original songs. You may use it for private study, scholarship, research or language learning purposes only
© 2014 AZChords.com Contact us | Privacy policy | DMCA | Add/correct tabs | Request tabs | Top 50 tabs