>
 >
The Black Winged Horde

The Black Winged Horde Guitar Tabs

Dark Funeral - The Black Winged Horde chords, tabs, tablatures, lyrics

Guitar lessons | Add/correct | Request | Top 50 tabs Artists:  A B C D E F G H I J K L M N O P Q R S T U V W X Y Z 0-9

The Black Winged Horde Guitar Tabs – Dark Funeral

CD, Sheet music, Poster

Do you like The Black Winged Horde? Share with your friends now
Tabs

Ver. 1.00 (00/12/19)

Tuning : 1 and half down

*** time - 0:00
Part_A
  Repeat it 2 times.
#||---7~------------|----------------|--3~------------|--3~----2~------|
#||---8~------------|----------------|--4~------------|--4~----3~------|
#||o--9~------------|-----o-/--------|--5~------------|--5~----4~------|
#||o--9~------------|------/-o-------|--5~------------|--5~----4~------|
#||-----------------|----------------|----------------|----------------|
#||-----------------|----------------|----------------|----------------|
      1  2  3  4       1  2  3  4       1  2  3  4       1  2  3  4     


|--7~------------|----------------|--3~------------|--6~-------------||#
|--8~------------|----------------|--4~------------|--7~-------------||#
|--9~------------|-----o-/--------|--5~------------|--8~------------o||#
|--9~------------|------/-o-------|--5~------------|--8~------------o||#
|----------------|----------------|----------------|-----------------||#
|----------------|----------------|----------------|-----------------||#
   1  2  3  4       1  2  3  4       1  2  3  4       1  2  3  4   (End of Part_A)




*** time - 0:17
Part_B
  Repeat it 4 times.
#||-----------------|----------------|----------------|----------------|
#||---5~------------|----------------|----------------|----------------|
#||o--------4~------|--------4~------|--3~------------|----------------|
#||o----------------|--5~------------|--------4~------|--1~------------|
#||-----------------|----------------|----------------|--------1~------|
#||-----------------|----------------|----------------|----------------|
      1  2  3  4       1  2  3  4       1  2  3  4       1  2  3  4     


|----------------|----------------|----------------|-----------------||#
|--7~------------|----------------|----------------|-----------------||#
|--------6~------|--------6~------|----------------|----------------o||#
|----------------|--7~------------|--6~------------|----------------o||#
|----------------|----------------|--------7~------|--4~-------------||#
|----------------|----------------|----------------|--------4~-------||#
   1  2  3  4       1  2  3  4       1  2  3  4       1  2  3  4   (End of Part_B)




*** time - 0:51
Part_C
  Repeat it 4 times.
#||---7~------------|----------------|----------------|----------------|
#||---8~------------|----------------|----------------|----------------|
#||o--9~------------|-----o-/--------|--------------o-//---------------|
#||o--9~------------|------/-o-------|---------------//-o--------------|
#||-----------------|----------------|----------------|----------------|
#||-----------------|----------------|----------------|----------------|
      1  2  3  4       1  2  3  4       1  2  3  4       1  2  3  4


 _______________
|1.3.
|--8~------------|----------------|--8~------------|-----------------||
|--8~------------|----------------|--9~------------|-----------------||
|--10~-----------|-----o-/--------|--10~-----------|-----o-/--------o||
|--10~-----------|------/-o-------|--10~-----------|------/-o-------o||
|----------------|----------------|----------------|-----------------||
|----------------|----------------|----------------|-----------------||
   1  2  3  4       1  2  3  4       1  2  3  4       1  2  3  4


 _______________
|2.4.
|--6~------------|----------------|--6~------------|-----------------||#
|--6~------------|----------------|--7~------------|-----------------||#
|--8~------------|-----o-/--------|--8~------------|-----o-/--------o||#
|--8~------------|------/-o-------|--8~------------|------/-o-------o||#
|----------------|----------------|----------------|-----------------||#
|----------------|----------------|----------------|-----------------||#
   1  2  3  4       1  2  3  4       1  2  3  4       1  2  3  4   (End of Part_C)




*** time - 1:25
Part_D
  Repeat it 2 times.
#||-----------------|----------------|----------------|----------------|
#||-----------------|--------8~------|--7~------------|----------------|
#||o----------------|--9~------------|--------7~------|----------------|
#||o--------9~------|----------------|----------------|--9~------------|
#||---7~------------|----------------|----------------|--------9~------|
#||-----------------|----------------|----------------|----------------|
      1  2  3  4       1  2  3  4       1  2  3  4       1  2  3  4     


|----------------|----------------|----------------|----------------|
|----------------|----------------|----------------|----------------|
|----------------|-------------o-////--------------|----------------|
|----------------|--------------////-o-------------|----------------|
|----------------|----------------|----------------|----------------|
|----------------|----------------|----------------|----------------|
   1  2  3  4       1  2  3  4       1  2  3  4       1  2  3  4     


|----------------|----------------|----------------|----------------|
|----------------|----------------|----------------|----------------|
|----------------|--------5~------|--4~------------|----------------|
|----------------|--7~------------|--------4~------|----------------|
|--------7~------|----------------|----------------|--5~------------|
|--5~------------|----------------|----------------|--------7~------|
   1  2  3  4       1  2  3  4       1  2  3  4       1  2  3  4


|----------------|----------------|----------------|----------------|#
|----------------|----------------|----------------|----------------|#
|----------------|-------------o-////--------------|----------------|#
|----------------|--------------////-o-------------|----------------|#
|----------------|----------------|----------------|----------------|#
|----------------|----------------|----------------|----------------|#
   1  2  3  4       1  2  3  4       1  2  3  4       1  2  3  4   (End of Part_D)




*** time - 2:00
Play Part_C
  Repeat it 2 times.




*** time - 2:16
Play Part_B
  Repeat it 4 times.




*** time - 2:51
Part_E
  Repeat it 2 times.
#||-----------------|--2~------------|--1~------------|-----------------||#
#||-----------------|--2~------------|--1~------------|-----------------||#
#||o----------------|--2~------------|--1~------------|-----o-/--------o||#
#||o--4~------------|--4~------------|--3~------------|------/-o-------o||#
#||---4~------------|--4~------------|--3~------------|-----------------||#
#||---2~------------|----------------|----------------|-----------------||#
      1  2  3  4       1  2  3  4    |  1  2  3  4    |  1  2  3  4     ||
                                     |                |                 ||
                                     |                |                 ||
                                     |-----------6~---|-----------------||#
                                     |--6~-8~-9~------|-----------------||#
                                     |----------------|-----o-/--------o||#
                                     |----------------|------/-o-------o||#
                                     |----------------|-----------------||#
                                     |----------------|-----------------||#
                                        1  2  3  4       1  2  3  4    (End of Part_E)




*** time - 2:59
Part_F
|--5~------------|----------------|--4~------------|----------------|
|--6~------------|----------------|--5~------------|----------------|
|--7~------------|-----o-/--------|--6~------------|-----o-/--------|
|--7~------------|------/-o-------|--6~------------|------/-o-------|
|----------------|----------------|----------------|----------------|
|----------------|----------------|----------------|----------------|
   1  2  3  4       1  2  3  4       1  2  3  4       1  2  3  4


|--5~------------|----------------|--4~------------|----------------|#
|--6~------------|----------------|--5~----5~------|----------------|#
|--7~------------|-----o-/--------|--6~------------|--6~------------|#
|--7~------------|------/-o-------|--6~------------|--------6~------|#
|----------------|----------------|----------------|----------------|#
|----------------|----------------|----------------|----------------|#
   1  2  3  4       1  2  3  4       1  2  3  4       1  2  3  4   (End of Part_F)




*** time - 3:08
Part_G
  Repeaqt it 2 times.
// Half Tempo
#||---------------------------------------|-------------------------------------|
#||----------------10---9--------9---10---|--9---8------------------------------|
#||o-----------11-----------11------------|-----------10----------------10------|
#||o------11------------------------------|---------------10-------10-------10--|
#||---9-----------------------------------|--------------------8----------------|
#||---------------------------------------|-------------------------------------|
      1        2        3        4           1        2        3        4


|--------------------------------------|--------------------------------------|
|---------------10---9--------9---10---|--9---8h9p8---------------------------|
|-----------11-----------11------------|------|=|=|-10----------------10------|
|------11------------------------------|--------3-------10-------10-------10--|
|--9-----------------------------------|---------------------8----------------|
|--------------------------------------|--------------------------------------|
   1        2        3        4           1         2        3        4


|--------------------------------------|-------------------------------------|
|---------------6----5--------5---6----|--5---4------------------------------|
|-----------7------------7-------------|-----------6-----------------6-------|
|------7-------------------------------|---------------6--------6--------6---|
|--5-----------------------------------|--------------------4----------------|
|--------------------------------------|-------------------------------------|
   1        2        3        4           1        2        3        4


|--------------------------------------|---------------------------------------||#
|---------------6----5--------5---6----|--5---4h5p4----------------------------||#
|-----------7------------7-------------|------|=|=|-6-----------------6-------o||#
|------7-------------------------------|--------3-------6--------6--------6---o||#
|--5-----------------------------------|---------------------4-----------------||#
|--------------------------------------|---------------------------------------||#
   1        2        3        4           1         2        3        4   (End of Part_G)




*** time - 3:41
Play Part_A
  Repeat it 2 times.




*** time - 3:58
Play Part_D
  Repeat it 2 times.




*** time - 4:33
Part_H
#|--7-------------|#
#|--8-------------|#
#|--9-------------|#
#|--9-------------|#
#|----------------|#
#|----------------|#
             (End of Part_H)



=== END OF TAB ===





Comments


Popular Dark Funeral tabs & chords
Diabolis Interium Bass Tabs
My Dark Desires Bass Tabs
Blood Frozen Tabs
Dark Are The Path To Eternity Tabs
My Dark Desires Tabs
My Dark Desires 1 Tabs
Shadows Over Transylvana Tabs
The Arrival Of Satan's Empire 1 Tabs
The Dawn No More Rises Tabs
When Angels Forever Die Tabs


Song lyrics



↑ Back to top | Tablatures and chords are parodies/interpretations of the original songs. You may use it for private study, scholarship, research or language learning purposes only
© 2014 AZChords.com Contact us | Privacy policy | DMCA | Add/correct tabs | Request tabs | Top 50 tabs