» » »

Dark Funeral, The Arrival Of Satans Empire Tabs (ver.3)

Artists:  A B C D E F G H I J K L M N O P Q R S T U V W X Y Z # 

The Arrival Of Satans Empire Tabs (ver.3)

Dark Funeral Tabs
 Rating:
4/5 (4 votes)
The Arrival Of Satans Empire lessons Tabs too difficult? Try these video lessons and learn fast
1
                "(2)
"  - tremolo note

Tuning EADGBE
RIFF1: 
|----------------------------------|  |--------|
|----------------------------------|  |--------|
|--------9--9-10-------9--12-12-13-|  |--------|
|--------9--9-10-------9--12-12-13-|x3|-9-9-10-|(FILL 1)
|--------7--7-8--------7--10-10-11-|  |-9-9-10-|
|-0-0-0-0-------0-0-0-0------------|  |-7-7-8--|

RIFF2:
|---------------------------------------------------------|
|---------------------------------------------------------|
|-------9"------------------------------------------------|
|----9"----9"-----9"----10"-----8"-9"---------------------|
|-7"----------10"----8"-----7"--------10"----10"-9"-6"-7"-|
|-----------------------------------------8"--------------|

|--------------------------------------------------|
|--------------------------------------------------|
|----9"--------------------------------------------|
|-9"----9"-----9"----10"----8"-9"-----10"-9"-------|
|----------10"----8"-----7"-------10"--------9"----|
|-----------------------------------------------7"-|

RIFF3: 
|------------------------------------------------------------------|
|------------------------------------------------------------------|
|------------------------------------------------------------------|
|-5"-4"-5"-7"-5"-7"-8"--7"--8"--10"-8"--4"-5"-4"-5"-4"-5"----------|
|-7"-7"-7"-7"-7"-7"-10"-10"-10"-10"-10"-6"-7"-7"-7"-7"-7"-5"-6"-5"-|
|---------------------------------------------------------7"-8"-7"-|

Fill 2:
|--------|
|--------|
|--------|
|--------| 
|-5"-5-4-|
|-7"-3-2-|

RIFF 4:
|---------------------|    |-----|
|---------------------|    |-----|
|-9"--10"-9"-10"--12"-|    |-----|
|-9"--10"-9"-10"--12"-| x3 |-10"-| FILL 3
|-7"--8"--7"-8"---10"-|    |-10"-|
|---------------------|    |-8"--|

RIFF 5:
|-------------------------------|
|-------------------------------|
|--------9--9-10--4-5-4---------|
|--------9--9-10--4-5-4-5-4-5---|
|--------7--7-8---2-3-2-5-4-5-2-|
|-0-0-0-0---------------3-2-3-0-|
"            
Submit corrections

comments powered by Disqus
↑ Back to top | Dark Funeral Tabs for The Arrival Of Satans Empire. Lyrics for acoustic guitar and electric guitar. 1 Tablatures and chords are parodies/interpretations of the original songs. You may use it for private study, scholarship, research or language learning purposes only