» » »

Shadows Over Transylvania Tabs (ver.1)

Artists:  A B C D E F G H I J K L M N O P Q R S T U V W X Y Z # 

Shadows Over Transylvania Tabs (ver.1)

Dark Funeral
Rating:
0/5 (0 votes)

Tabs too difficult? Try these video lessons and learn fast.
                Band- dark Funeral
Song- Shadows Over Transylvania

Tune Gtr to D
SHADOWS OVER TRANSYLVANIA

Riff 1 (4x)
|--------------------------------------------------------------------|
|--------------------------------------------------------------------|
|--------------------------------------------------------------------|
|-9---------------5---------------8----------------4-----------------|
|-7---------------3---------------6----------------2-----------------|
|--------------------------------------------------------------------|

 Riff 2 (w/ verse)
|----------------------------------------|
|----------------------------------------|
|----------------------------------------|
|-9----------5--------9----------4-------|
|-7-10-9-10--3-6-5-6--7-10-9-10--2-5-4-5-|
|----------------------------------------|

 Riff 3
|--------------------------------------------|
|--------------------------------------------|
|--------------------------------------------|
|-9"----------5"-----------9"---------7-5-4--|
|-7"----------3"-----------7"---------5-3-2--|
|--------------------------------------------|

 Riff 4 (trem pick)
|-----------------------------------------------------------------------|
|-----------------------------------------------------------------------|
|-----------------------------------------------------------------------|
|---9-10-7-9-----------9-10-7-9-----------5-6-3-5----------5-6-3-5------|
|-7----------9-10-9--7----------9-10-9--3---------5-6-5--3---------5-6-5|
|-----------------------------------------------------------------------|

Riff 5 (trem pick all high notes       Riff 6
|-----------------------------------|--------------------------------|
|-----------------------------------|--------------------------------|
|-----------------------------------|--------------------------------|
|-9-10-9-8--5----9-10-9-8--5-6-5-4--|-9------10-----9------5---------|
|-7"--------7----7---------3--------|-7------8------7------3---------|
|-----------------------------------|--------------------------------|

Riff 7
|--------------------------------------------------------------------|
|--------------------------------------------------------------------|
|--------------------------------------------------------------------|
|-9------9-10-9-7--9------9-8-------------------------------------9--|
|---7-10-------------7-10-----9-6---------------------------------7--|
|--------------------------------------------------------------------|

Notes: " = tremolo pick
            
Tabs too difficult? Try these video lessons and learn fast.




comments powered by Disqus
↑ Back to top | Tablatures and chords are parodies/interpretations of the original songs. You may use it for private study, scholarship, research or language learning purposes only