» » »

Dark Funeral, Shadows Over Transylvana Tabs (ver.1)

Artists:  A B C D E F G H I J K L M N O P Q R S T U V W X Y Z # 

Shadows Over Transylvana Tabs (ver.1)

Dark Funeral Tabs
Rating:
0/5 (0 votes)
Shadows Over Transylvana lessons Tabs too difficult? Try these video lessons and learn fast
                SHADOWS OVER TRANSYLVANIA





RIFF 1
 ...acompanhando guitarra 1
e|--------------|-------------|-------------|--------------||
B|--------------|-------------|-------------|--------------||
G|--------------|-------------|-------------|--------------||
D|--7-7-7-7-7--8|-------------|-6-6-6-6-6--7|--------------||
A|--5-5-5-5-5--6|-8-8-8-8-8-8-|-4-4-4-4-4--5|-7-7-7-7-7-7--||
E|--------------|-6-6-6-6-6-6-|-------------|-5-5-5-5-5-5--||
 |GUITARRA 1	|	      |		    |	           ||
e|--------------|-------------|-------------|--------------||
B|--------------|-------------|-------------|--------------||
G|--------------|-------------|-------------|--------------||
D|--7"-6"-7"-8"-|-3"----2"-4"-|-6"-3"-6"-7"-|--------------||
A|--------------|----5"-------|-------------|-7"-3"-6"-8"--||
E|--------------|-------------|-------------|--------------||





RIFF 2
   ...acompanhando a guitarra 1
e|---------|---------|---------|----------|
B|---------|---------|---------|----------|
G|---------|---------|---------|----------|
D|--7------|-3-------|-7-------|-2--------|
A|--5------|-1-------|-5-------|-0--------|
E|---------|---------|---------|----------|
 |GUITARRA 1	     |	       |	  |
e|---------|---------|---------|----------|
B|---------|---------|---------|----------|
G|---------|---------|---------|----------|
D|-7-------|-3-------|-7-------|-5--------|
A|-5-8-7-8-|-1-4-3-4-|-5-8-7-8-|-3-6-5-3--|
E|---------|---------|---------|----------|





RIFF 3
        REPETE 2x
e|--------------------------|
B|--------------------------|
G|--------------------------|
D|--7---3---7---5--3-2------|
A|--5---1---5---3--1-0------|
E|--------------------------|



***** REPETE RIFF 2 *****




RIFF 4

e|--------------------------|--------------------------|
B|--------------------------|--------------------------|
G|--------------------------|--------------------------|
D|------7--7--7--7--7-------|--------------------------|
A|------5--5--5--5--5-------|------8--8--8--8--8-------|
E|--------------------------|------6--6--6--6--6-------|
 |GUITARRA 1 - PART 1  2x   |			       |
e|--------------------------|--------------------------|
B|--------------------------|--------------------------|
G|--------------------------|--------------------------|
D|--7"-8"-5"-7"-2"-3"-2"-0"-|--------------------------|
A|--------------------------|-8"-9"-6"-8"-3"-4"-3"-1"--|
E|--------------------------|--------------------------|






RIFF 5
 ...continua a mesma... só muda o riff da guita 1
e|--------------|--------------|
B|--------------|--------------|
G|--------------|--------------|
D|----7-7-7-----|--------------|
A|----5-5-5-----|----8-8-8-----|
E|--------------|----6-6-6-----|
 |GUITARRA 1    |	       |
e|--------------|--------------|
B|--------------|--------------|
G|--------------|--------------|
D|--7--8"-7"-5"-|--------------|
A|--5-----------|-8--9"-8"-6"--|
E|--------------|-6------------|





RIFF 6

e|------------------|
B|------------------|
G|------------------|
D|--7---8---7-------|
A|--5---6---5---8---|
E|--------------6---|





RIFF 7
      
e|------------------|
B|------------------|
G|------------------|
D|--7----8----6-----|
A|--5----6----4-----|
E|------------------|
 | GUITARRA 1       | os "*" é pra dizer a hora em q muda a nota na guita 2
e|----------------------------------------------|
B|----------------------------------------------|
G|----------------------------------------------|
D|---7-------7-*8-------8-*7--------7-*6--------|
A|----------------------------------------------|
E|-----10-11--------10--------10-9-------9-8-6--|
            
Submit corrections

comments powered by Disqus
↑ Back to top | Dark Funeral Tabs for Shadows Over Transylvana. Lyrics for acoustic guitar and electric guitar. Tablatures and chords are parodies/interpretations of the original songs. You may use it for private study, scholarship, research or language learning purposes only