» » »

Dark Funeral, Satans Mayhem Tabs (ver.1)

Artists:  A B C D E F G H I J K L M N O P Q R S T U V W X Y Z # 

Satans Mayhem Tabs (ver.1)

Dark Funeral Tabs
Rating:
0/5 (0 votes)
Hard to play? Try these video lessons and learn fast.
                Band- Dark Funeral
Song- satans Mayhem

RIFF 1
_______Guitar 1
e|----------------------|
B|----------------------|
G|----------------------|
D|--7777777--8888888----|
A|--7777777--6666666----|
E|--5555555--6666666----|

RIFF 1 
_______Guitar 2
e|----------------------|
B|----------------------|
G|----------------------|
D|--7777777--3333333----|
A|--7777777--3333333----|
E|--5555555--1111111----|





RIFF 2
_______Guitar 1
e|-----------------------------------|-----------------------------------------|
B|-----------------------------------|-----------------------------------------|
G|----9-8-5-8-9-8-5-8-9-8-5-8-9-8-5--|-----------------------------------------|
D|--9--------------------------------|-----10-9-6-9-10-9-6-9-10-9-6-9-10-9-6---|
A|-----------------------------------|--10-------------------------------------|
E|-----------------------------------|-----------------------------------------|

RIFF 2
______Guitar 2 (guitar base)
e|----------------------|
B|----------------------|
G|----------------------|
D|--7777777--3333333----|
A|--7777777--3333333----|
E|--5555555--1111111----|



RIFF 3
_______Guitar 1
e|------------------|
B|------------------|
G|---------888888---|
D|--77777--888888---|
A|--77777--666666---|
E|--55555-----------|

RIFF 3
_______Guitar 2
e|------------------|
B|------------------|
G|------------------|
D|--77777--888888---|
A|--77777--888888---|
E|--55555--666666---|



RIFF 4
_______Guitars 1 & 2
e|---------------------------|
B|---------------------------|
G|--------8888---------------|
D|--7777--8888--7777--6666---|
A|--7777--6666--7777--6666---|
E|--5555--------5555--4444---|





RIFF 5
_______Guitars 1 & 2
e|------------------------------------------------|
B|------------------------------------------------|
G|------------------------------------------------|
D|--77777--88888--77777--1111111111--888--77777---|
A|--77777--88888--77777--1111111111--888--77777---|
E|--55555--66666--55555--9-9-9-9-9---666--55555---|





RIFF 6
_______Guitars 1 & 2
e|--------------------|-----------------------|
B|-----REPEAT-2x------|------REPEAT-2x--------|
G|--------------------|-----------------------|
D|--8888888--7777777--|--11111111--10101010---|
A|--8888888--7777777--|--11111111--10101010---|
E|--6666666--5555555--|--9-9-9-9---8-8-8-8----|





RIFF 7
_______Guitar 1
e|---------------------------------------------------------|
B|---------------------------------------------------------|
G|---------------------------------------------------------|
D|--7777--88--10101010--1212--13131313---------------------|
A|--7777--88--10101010--1212--13131313-14141414-13131313---|
E|--5555--66--8-8-8-8---1010--11111111----------11111111---|

RIFF 7
_______Guitar 2
e|------------------------------------|
B|------------------------------------|
G|------------------------------------|
D|-777777777777--8888--999999999999---|
A|-777777777777--8888--999999999999---|
E|-555555555555--6666--777777777777---|




RIFF 8
_______Guitar 1 & 2
e|--------------------------------------|
B|--------------------------------------|
G|--------------------------------------|
D|--10................--5555555555555---|
A|--10................--5555555555555---|
E|--8.................--3333333333333---|




***===| REPEAT RIFF 7 |===***





RIFF 9
_______Guitar 1
e|---------------------------------------|
B|---------------------------------------|
G|--------------------------3333-11111---|
D|--7777788886666---4444444--------------|
A|--77777-----------4444444--------------|
E|--55555-----------2222222--------------|

RIFF 9
_______Guitar 2
e|---------------------|
B|---------------------|
G|---------------------|
D|--7777777--4444444---|
A|--7777777--4444444---|
E|--5555555--2222222---|





RIFF 10
_______Guitar 1
e|---------------------------|
B|---------------------------|
G|---------------------------|
D|-(7)-888-7777--(3)-44444---|
A|-(7)-----------(3)---------|
E|-(5)-----------(1)---------|

RIFF 10
_______Guitar 2
e|-------------|
B|-------------|
G|-------------|
D|--(7)--(3)---|
A|--(7)--(3)---|
E|--(5)--(1)---|




***===| REPEAT RIFF 5 |===***

***===| REPEAT RIFF 6 |===***


...FINAL...
            

comments powered by Disqus
↑ Back to top | Dark Funeral Tabs for Satans Mayhem. Lyrics for acoustic guitar and electric guitar. Tablatures and chords are parodies/interpretations of the original songs. You may use it for private study, scholarship, research or language learning purposes only