» » »

Dark Funeral, Satanic Blood Bass tabs (ver.1)

Artists:  A B C D E F G H I J K L M N O P Q R S T U V W X Y Z # 

Satanic Blood Bass tabs (ver.1)

Dark Funeral Tabs
Rating:
0/5 (0 votes)
Satanic Blood lessons Tabs too difficult? Try these video lessons and learn fast
                Standard tuning

                                      71x                     
G||------------------------------------||--------------------|
D||*----------------------------------*||--------------------|
A||*--8-8-8-8-8-8-8-8-----------------*||--8-----------------|
E||-------------------7-7-7-7-8-8-8-8--||-----------7--------|


                                         
--------------------|------------------||
--------------------|------------------||
-----------8--------|------------------||
--8-----------------|------------------||
            

comments powered by Disqus
↑ Back to top | Dark Funeral Bass for Satanic Blood. Lyrics for acoustic guitar and electric guitar. Tablatures and chords are parodies/interpretations of the original songs. You may use it for private study, scholarship, research or language learning purposes only