>
 >
Open The Gates

Open The Gates Bass Tabs

Dark Funeral - Open The Gates chords, tabs, tablatures, lyrics

Guitar lessons | Add/correct | Request | Top 50 tabs Artists:  A B C D E F G H I J K L M N O P Q R S T U V W X Y Z 0-9

Open The Gates Bass Tabs – Dark Funeral

CD, Sheet music, Poster

Do you like Open The Gates? Share with your friends now
Bass TabsTabs
Band- Dark Funeral
Song- Open The Gates

G||-------------------|--------------------|-------------------|
D||-------------------|--------------------|-------------------|
A||--5----------------|----------6----5----|--2----------------|
E||-------------------|--------------------|-------------------|


                     3x                                        
---------------------||--------------------|------------------|
--------------------*||*-------------------|------------------|
----------3----2----*||*--5----------------|------------------|
---------------------||--------------------|------------------|


                                                                       
-------------------|-------------------||-----------------------------|
-------------------|------------------*||*----------------------------|
--2----------------|------------------*||*--5------------5------------|
-------------------|-------------------||-----------------------------|


                                                            
------------------------------|----------------------------|
------------------------------|----------------------------|
--5------------6----5----6----|--2------------2------------|
------------------------------|----------------------------|


                               3x                                      
-------------------------------||------------------|------------------|
------------------------------*||------------------|------------------|
--2------------2----3----2----*||------------------|------------------|
-------------------------------||------------------|------------------|


                                                              
|--------------------|-------------------|-------------------|
|*-------------------|-------------------|-------------------|
|*--5----------------|--6----------------|--5----------------|
|--------------------|-------------------|-------------------|


                    3x                                         
--------------------||--------------------|-------------------|
-------------------*||*-------------------|-------------------|
--4----------------*||*--5----------------|--6----------------|
--------------------||--------------------|-------------------|


                                                               
-------------------|--------------------||--------------------|
-------------------|-------------------*||*-------------------|
--5----------------|--4----------------*||*--5----------------|
-------------------|--------------------||--------------------|


                                                              
-------------------|-------------------|--------------------||
-------------------|-------------------|-------------------*||
--6----------------|--5----------------|--4----------------*||
-------------------|-------------------|--------------------||


                                                             
--------------------|-------------------|-------------------|
*-------------------|-------------------|-------------------|
*--3----------------|-------------------|--3----------------|
--------------------|--4----------------|-------------------|


                    3x                                           
--------------------||--------------------|---------------------|
-------------------*||*-------------------|---------------------|
--4----------------*||*--3----------------|---------------------|
--------------------||--------------------|--4--------6----4----|


                                          3x                   
-------------------|----------------------||------------------|
-------------------|---------------------*||------------------|
--3----------------|--4--------6----4----*||------------------|
-------------------|----------------------||------------------|


                                                           
------------------|-------------------|-------------------|
------------------|-------------------|-------------------|
------------------|--3----------------|-------------------|
------------------|-------------------|--4----------------|


                                                7x                     
|-----------------------|-----------------------||--------------------|
|*----------------------|----------------------*||*-------------------|
|*--3----5----6----5----|-------5----6----5----*||*--3----------------|
|-----------------------|--4--------------------||--------------------|


                                                             3x
-------------------|-------------------|---------------------||
-------------------|-------------------|--------------------*||
-------------------|--3----------------|--------------------*||
--4----------------|-------------------|--4--------3---------||


                                                             
--------------------|-------------------|-------------------|
*-------------------|-------------------|-------------------|
*--3----------------|-------------------|--3----------------|
--------------------|--4----------------|-------------------|


                    3x                                           
--------------------||---------------------|--------------------|
-------------------*||*--------------------|--------------------|
--4----------------*||*--3--------3--------|--4--------4--------|
--------------------||---------------------|--------------------|


                                                               
--------------------|--------------------|--------------------|
--------------------|--------------------|--------------------|
--3--------3--------|--------------------|--3--------3--------|
--------------------|--4--------4--------|--------------------|


                                                                   
--------------------|--------------------|-----------------------||
--------------------|--------------------|----------------------*||
--4--------4--------|--3--------3--------|--6----7----6----4----*||
--------------------|--------------------|-----------------------||


                                                               
--------------------|---------------------|-------------------|
*-------------------|---------------------|-------------------|
*--3----------------|---------------------|--3----------------|
--------------------|--4--------6----4----|-------------------|


                      3x                                      
----------------------||------------------|------------------|
---------------------*||------------------|------------------|
--4--------6----4----*||------------------|------------------|
----------------------||------------------|------------------|


                                                                 
-------------------|-------------------||-----------------------|
-------------------|-------------------||*----------------------|
--3----------------|-------------------||*--3----5----6----5----|
-------------------|--4----------------||-----------------------|


                       7x                     
-----------------------||-------------------||
----------------------*||-------------------||
-------5----6----5----*||--3----------------||
--4--------------------||-------------------||





Comments


Popular Dark Funeral tabs & chords
Call From The Grave Tabs
Diabolis Interium Tabs
Evil Prevail Tabs
Fire Eternal Tabs
Heart Of Ice Tabs
Ravenna Strigoi Mortii Tabs
Satans Mayhem Tabs
Shadows Over Transylvana Tabs
The Arrival Of Satan's Empire 1 Tabs
The Secrets Of The Black Arts Tabs


Song lyrics



↑ Back to top | Tablatures and chords are parodies/interpretations of the original songs. You may use it for private study, scholarship, research or language learning purposes only
© 2014 AZChords.com Contact us | Privacy policy | DMCA | Add/correct tabs | Request tabs | Top 50 tabs