>
 >
Evil Prevail

Evil Prevail Guitar Tabs

Dark Funeral - Evil Prevail chords, tabs, tablatures, lyrics

Guitar lessons | Add/correct | Request | Top 50 tabs Artists:  A B C D E F G H I J K L M N O P Q R S T U V W X Y Z 0-9

Evil Prevail Guitar Tabs – Dark Funeral

CD, Sheet music, Poster

Do you like Evil Prevail? Share with your friends now
Tabs

Ver. 2.00 (02/08/15)

Tuning : half down

*** time - 0:00
Part_A
  Repeat it 2 times.
#||---------------------------------------|-------------------------------------|
#||----__3__----__3__----__3__----__3__---|-------------------------------------|
#||o--|--|--|--|--|--|--|--|--|--|--|--|--|----------------o-/------------------|
#||o--2--2--2--2--2--2--2--2--2--2--2--2--|-----------------/-o-----------------|
#||---0--0--0--0--0--0--0--0--0--0--0--0--|-------------------------------------|
#||---------------------------------------|-------------------------------------|
      1        2        3        4           1        2        3        4
 _______________
|1.
|---__3__----__3__----__3__----__3__---|---__3__----__3__----__3__----__3__----||
|--|--|--|--|--|--|--|--|--|--|--|--|--|--|--|--|--|--|--|--|--|--|--|--|--|---||
|--5--5--5--5--5--5--5--5--5--5--5--5--|--4--4--4--4--4--4--4--4--4--4--4--4--o||
|--3--3--3--3--3--3--3--3--3--3--3--3--|--3--3--3--3--3--3--3--3--3--3--3--3--o||
|--------------------------------------|---------------------------------------||
|--------------------------------------|---------------------------------------||
   1        2        3        4           1        2        3        4
 _______________
|2.
|---__3__----__3__----__3__----__3__---|---__3__----__3__----__3__----__3__----||#
|--|--|--|--|--|--|--|--|--|--|--|--|--|--|--|--|--|--|--|--|--|--|--|--|--|---||#
|--5--5--5--5--5--5--5--5--5--5--5--5--|--7--7--7--7--7--7--7--7--7--7--7--7---||#
|--3--3--3--3--3--3--3--3--3--3--3--3--|--3--3--3--3--3--3--3--3--3--3--3--3---||#
|--------------------------------------|---------------------------------------||#
|--------------------------------------|---------------------------------------||#
   1        2        3        4           1        2        3        4    (End of Part_A)



*** time - 0:09
Part_B
  Repeat it 4 times.
#||------------------------------|-----------------------------|
#||-------------__3__---6--6--6--|--5--5--5--6--6--6-----------|
#||o---__3__---|--|--|--|__|__|--|--|__|__|--|__|__|--7--7--7--|
#||o--|--|--|--7--7--7-----3-----|-----3--------3-----|__|__|--|
#||---5--5--5--------------------|-----------------------3-----|
#||------------------------------|-----------------------------|
      1        2        3           1        2        3

|------------__3__---6--6--6--|--7--7--7--------------------|
|-----------|--|--|--|__|__|--|--|__|__|--9--9--9-----------|
|---__3__---8--8--8-----3-----|-----3-----|__|__|--8--8--8--|
|--|--|--|--------------------|--------------3-----|__|__|--|
|--6--6--6--------------------|-----------------------3-----|
|-----------------------------|-----------------------------|
   1        2        3           1        2        3


|-----------------------------|-----------------------------|
|------------__3__---4--4--4--|--3--3--3--4--4--4-----------|
|---__3__---|--|--|--|__|__|--|--|__|__|--|__|__|--7--7--7--|
|--|--|--|--5--5--5-----3-----|-----3--------3-----|__|__|--|
|--3--3--3--------------------|-----------------------3-----|
|-----------------------------|-----------------------------|
   1        2        3           1        2        3

|-----------------------------|------------------------------||#
|------------__3__---6--6--6--|--7--7--7------------__3__----||#
|-----------|--|--|--|__|__|--|--|__|__|--8--8--8--|--|--|--o||#
|---__3__---8--8--8-----3-----|-----3-----|__|__|--8--8--8--o||#
|--|--|--|--------------------|--------------3---------------||#
|--6--6--6--------------------|------------------------------||#
   1        2        3           1        2        3    (End of Part_B)


*** time - 0:35
Part_C
#|-----------------------------|-----------------------------|
#|---__3__----__3__----__3__---|-----------------------------|
#|--|--|--|--|--|--|--|--|--|--|-------------o-/-------------|
#|--7--7--7--7--7--7--7--7--7--|--------------/-o------------|
#|--5--5--5--5--5--5--5--5--5--|-----------------------------|
#|-----------------------------|-----------------------------|
    1        2        3           1        2        3

|-----------------------------|-----------------------------|
|-----------------------------|-----------------------------|
|---__3__----__3__----__3__---|-------------o-/-------------|
|--|--|--|--|--|--|--|--|--|--|--------------/-o------------|
|--6--6--6--6--6--6--6--6--6--|-----------------------------|
|--4--4--4--4--4--4--4--4--4--|-----------------------------|
   1        2        3           1        2        3

|-----------------------------|-----------------------------|
|---__3__----__3__----__3__---|-----------------------------|
|--|--|--|--|--|--|--|--|--|--|-------------o-/-------------|
|--5--5--5--5--5--5--5--5--5--|--------------/-o------------|
|--3--3--3--3--3--3--3--3--3--|-----------------------------|
|-----------------------------|-----------------------------|
   1        2        3           1        2        3

|-----------------------------|-----------------------------|#
|---__3__----__3__----__3__---|-----------------------------|#
|--|--|--|--|--|--|--|--|--|--|-------------o-/-------------|#
|--8--8--8--8--8--8--8--8--8--|--------------/-o------------|#
|--6--6--6--6--6--6--6--6--6--|-----------------------------|#
|-----------------------------|-----------------------------|#
   1        2        3           1        2        3   (End of Part_C)


*** time - 0:41
Play Part_B
 Repeat it 2 times.


*** time - 0:55
Part_D
  Repeat it 2 times.
#||------------------------------|-----------------------------|
#||---------------------1--------|--0--------1-----------------|
#||o-----------------------------|--------------------2--------|
#||o-----------2-----------------|-----------------------------|
#||---0--------------------------|-----------------------------|
#||------------------------------|-----------------------------|
      1        2        3           1        2        3

|-----------------------------|-----------------------------|
|--------------------4--------|--5--------------------------|
|-----------6-----------------|-----------6-----------------|
|-----------------------------|--------------------6--------|
|--4--------------------------|-----------------------------|
|-----------------------------|-----------------------------|
   1        2        3           1        2        3


|-----------------------------|-----------------------------|
|--------------------1--------|--0--------1-----------------|
|-----------------------------|--------------------2--------|
|-----------2-----------------|-----------------------------|
|--0--------------------------|-----------------------------|
|-----------------------------|-----------------------------|
   1        2        3           1        2        3

|-----------------------------|------------------------------||#
|-----------------------------|------------------------------||#
|-----------------------------|--0--------------------------o||#
|--------------------4--------|-----------------------------o||#
|-----------7-----------------|-----------7------------------||#
|--7--------------------------|--------------------7---------||#
   1        2        3           1        2        3    (End of Part_D)



*** time - 1:08
Part_E
  Repeat it 4 times.
#||----__3__----__3__----__3__---|-----------------------------|
#||---|--|--|--|--|--|--|--|--|--|-----------------------------|
#||o--5--5--5--5--5--5--5--5--5--|-------------o-/-------------|
#||o--7--7--7--7--7--7--7--7--7--|--------------/-o------------|
#||------------------------------|-----------------------------|
#||------------------------------|-----------------------------|
      1        2        3           1        2        3

|--5--5--5--5--5--5--5--5--5--|-----------------------------|
|--6--6--6--6--6--6--6--6--6--|-----------------------------|
|--7--7--7--7--7--7--7--7--7--|-------------o-/-------------|
|--7--7--7--7--7--7--7--7--7--|--------------/-o------------|
|--|__|__|--|__|__|--|__|__|--|-----------------------------|
|-----3--------3--------3-----|-----------------------------|
   1        2        3           1        2        3
 _______________
|1.3.
|-----------------------------|---------|---------|---------||#
|---__3__----__3__----__3__---|---------|---------|---------||#
|--|--|--|--|--|--|--|--|--|--|---o-/---|-------o-//-------o||#
|--5--5--5--5--5--5--5--5--5--|----/-o--|--------//-o------o||#
|--7--7--7--7--7--7--7--7--7--|---------|---------|---------||#
|-----------------------------|---------|---------|---------||#
   1        2        3                                

 ______________
|2.4.
|-----------------------------|---------|---------|---------||#
|---__3__----__3__----__3__---|---------|---------|---------||#
|--|--|--|--|--|--|--|--|--|--|---o-/---|-------o-//-------o||#
|--9--9--9--9--9--9--9--9--9--|----/-o--|--------//-o------o||#
|--7--7--7--7--7--7--7--7--7--|---------|---------|---------||#
|-----------------------------|---------|---------|---------||#
   1        2        3                                (End of Part_E)


*** time - 1:34
Play Part_B
  Repeat it 4 times.


*** time - 2:00
Part_F
  Repeat it 2 times.
#||----------------------__3__------------|---__3__----__3__-------------__3__---|
#||-------------__3__---|--|--|--6--6--6--|--|--|--|--|--|--|---__3__---|--|--|--|
#||o---__3__---|--|--|--7--7--7--|__|__|--|--6--6--6--3--3--3--|--|--|--3--3--3--|
#||o--|--|--|--7--7--7--------------3-----|--------------------3--3--3-----------|
#||---5--5--5-----------------------------|--------------------------------------|
#||---------------------------------------|--------------------------------------|
      1        2        3        4           1        2        3        4        

                                           __3__                    
|---------------------__3__------------|--|--|--|---__3__----------------------||#
|------------__3__---|--|--|--6--6--6--|--5--5--5--|--|--|---__3__----__3__----||#
|---__3__---|--|--|--7--7--7--|__|__|--|-----------6--6--6--|--|--|--|--|--|--o||#
|--|--|--|--7--7--7--------------3-----|--------------------8--8--8--7--7--7--o||#
|--5--5--5-----------------------------|---------------------------------------||#
|--------------------------------------|---------------------------------------||#
   1        2        3        4           1        2        3        4    (End of Part_F) 



*** time - 2:09
Part_G
  Repeat it 6 times.
#||---------------------------------------|--------------------------------------|
#||------------6-----------------5--------|--------------------------------------|
#||o--------------(7)---------------(7)---|---------------o-/--------------------|
#||o------7--------?--------7--------?----|----------------/-o-------------------|
#||---5-----------------5-----------------|--------------------------------------|
#||---------------------------------------|--------------------------------------|
      1        2        3        4           1        2        3        4        
 _______________
|1.- 5.                                                             
|--------------------------------------|---------------------------------------||
|-----------2-----------------5--------|---------------------------------------||
|--------------(3)---------------(3)---|---------------o-/--------------------o||
|------3--------?--------7--------?----|----------------/-o-------------------o||
|--1-----------------5-----------------|---------------------------------------||
|--------------------------------------|---------------------------------------||
   1        2        3        4           1        2        3        4         

 _______________
|6.                                     
|--------------------------------------|#
|---------------2----1-----------------|#
|-----------3------------3-------------|#
|------3----------------------3--------|#
|--1------------------------------1----|#
|--------------------------------------|#
   1        2        3        4    (End of Part_G) 



*** time - 3:01
Play Part_E
  Repeat it 4 times.


*** time - 3:27
Part_I
  Repeat it 2 times.
#||-----__3__----__3__----__3__---|-----------------------------|
#||----|--|--|--|--|--|--|--|--|--|-----------------------------|
#||o---5--5--5--5--5--5--5--5--5--|-------------o-/-------------|
#||o---7--7--7--7--7--7--7--7--7--|--------------/-o------------|
#||-------------------------------|-----------------------------|
#||-------------------------------|-----------------------------|
       1        2        3           1        2        3        

|---__3__----__3__----__3__---|-----------------------------|
|--|--|--|--|--|--|--|--|--|--|-----------------------------|
|--4--4--4--4--4--4--4--4--4--|-------------o-/-------------|
|--5--5--5--5--5--5--5--5--5--|--------------/-o------------|
|-----------------------------|-----------------------------|
|-----------------------------|-----------------------------|
   1        2        3           1        2        3        

|---__3__----__3__----__3__---|-----------------------------|
|--|--|--|--|--|--|--|--|--|--|-----------------------------|
|--5--5--5--5--5--5--5--5--5--|-------------o-/-------------|
|--7--7--7--7--7--7--7--7--7--|--------------/-o------------|
|-----------------------------|-----------------------------|
|-----------------------------|-----------------------------|
   1        2        3           1        2        3        

|---__3__----__3__----__3__---|---__3__----__3__----__3__----||#
|--|--|--|--|--|--|--|--|--|--|--|--|--|--|--|--|--|--|--|---||#
|--4--4--4--4--4--4--5--5--5--|--5--5--5--4--4--4--4--4--4--o||#
|-----------------------------|-----------------------------o||#
|-----------------------------|------------------------------||#
|-----------------------------|------------------------------||#
   1        2        3           1        2        3    (End of Part_I) 



*** time - 3:40
Part_J
  Repeat it and fade out.
#||-------------------------------|-----------------------------|
#||-----------------------__3__---|---__3__----__3__----__3__---|
#||o----__3__----__3__---|--|--|--|--|--|--|--|--|--|--|--|--|--|
#||o---|--|--|--|--|--|--10-10-10-|--10-10-10-7--7--7--7--7--7--|
#||----7--7--7--7--7--7-----------|-----------------------------|
#||-------------------------------|-----------------------------|
       1        2        3           1        2        3        

|-----------------------------|-----------------------------|
|---__3__----__3__----__3__---|-----------------------------|
|--|--|--|--|--|--|--|--|--|--|-------------o-/-------------|
|--9--9--9--9--9--9--9--9--9--|--------------/-o------------|
|-----------------------------|-----------------------------|
|-----------------------------|-----------------------------|
   1        2        3           1        2        3        

|-----------------------------|-----------------------------|
|---------------------__3__---|---__3__----__3__----__3__---|
|---__3__----__3__---|--|--|--|--|--|--|--|--|--|--|--|--|--|
|--|--|--|--|--|--|--10-10-10-|--10-10-10-7--7--7--7--7--7--|
|--7--7--7--7--7--7-----------|-----------------------------|
|-----------------------------|-----------------------------|
   1        2        3           1        2        3        

|------------------------------------------------------------||#
|-----------------------------|------------------------------||#
|---__3__----__3__----__3__---|---__3__----__3__----__3__---o||#
|--|--|--|--|--|--|--|--|--|--|--|--|--|--|--|--|--|--|--|--o||#
|--7--7--7--7--7--7--9--9--9--|--9--9--9--10-10-10-10-10-10--||#
|-----------------------------|------------------------------||#
   1        2        3           1        2        3    (End of Part_J)


=== END OF TAB ===





Comments


Popular Dark Funeral tabs & chords
Diabolis Interium Bass Tabs
Atrum Regina Intro Tabs
Blood Frozen Tabs
Bloodfrozen Tabs
Feed On The Mortals Tabs
My Dark Desires Tabs
Satanic Blood Tabs
Shadows Over Transylvana Tabs
The Dawn No More Rises Tabs
Vobiscum Satanas Tabs


Song lyrics



↑ Back to top | Tablatures and chords are parodies/interpretations of the original songs. You may use it for private study, scholarship, research or language learning purposes only
© 2014 AZChords.com Contact us | Privacy policy | DMCA | Add/correct tabs | Request tabs | Top 50 tabs