>
 >
Diabolis Interium

Diabolis Interium Bass Tabs

Dark Funeral - Diabolis Interium chords, tabs, tablatures, lyrics

Guitar lessons | Add/correct | Request | Top 50 tabs Artists:  A B C D E F G H I J K L M N O P Q R S T U V W X Y Z 0-9

Diabolis Interium Bass Tabs – Dark Funeral

CD, Sheet music, Poster

Do you like Diabolis Interium? Share with your friends now
Bass TabsTabs
Band- Dark Funeral
Song- Diabolis Interium

Tune Down

F#||---------------------|---------------------|
C#||---------------------|---------------------|
G#||---------------------|---------------------|
D#||--0------1------1----|--0------1------1----|


                                                                      
----------------------------------|----------------------------------|
----------------------------------|----------------------------------|
----------------------------------|----------------------------------|
--0-0-0-0-0-0-1-1-1-1-1-1-1-1-1-1-|--0-0-0-0-0-0-1-1-1-1-1-1-1-1-1-1-|


                                                                      
----------------------------------|----------------------------------|
----------------------------------|----------------------------------|
----------------------------------|----------------------------------|
--0-0-0-0-0-0-1-1-1-1-1-1-1-1-1-1-|--0-0-0-0-0-0-1-1-1-1-1-1-1-1-1-1-|


                                                                      
----------------------------------|----------------------------------|
----------------------------------|----------------------------------|
----------------------------------|----------------------------------|
--0-0-0-0-0-0-1-1-1-1-1-1-1-1-1-1-|--0-0-0-0-0-0-1-1-1-1-1-1-1-1-1-1-|


                                                                      
----------------------------------|----------------------------------|
----------------------------------|----------------------------------|
----------------------------------|----------------------------------|
--0-0-0-0-0-0-1-1-1-1-1-1-1-1-1-1-|--0-0-0-0-0-0-1-1-1-1-1-1-1-1-1-1-|


                                                                      
----------------------------------|----------------------------------|
----------------------------------|----------------------------------|
----------------------------------|----------------------------------|
--0-0-0-0-0-0-1-1-1-1-1-1-1-1-1-1-|--0-0-0-0-0-0-1-1-1-1-1-1-1-1-1-1-|


                                                                      
----------------------------------|----------------------------------|
----------------------------------|----------------------------------|
----------------------------------|----------------------------------|
--0-0-0-0-0-0-0-0-0-0-0-0-0-0-0-0-|--1-1-1-1-1-1-1-1-1-1-1-1-3-3-5-5-|


                                                                      
----------------------------------|----------------------------------|
----------------------------------|----------------------------------|
----------------------------------|------------------3-3-3-3-3-3-3-3-|
--0-0-0-0-0-0-0-0-0-0-0-0-0-0-0-0-|--1-1-1-1-1-1-1-1-----------------|


                                                                      
----------------------------------|----------------------------------|
----------------------------------|----------------------------------|
----------------------------------|----------------------------------|
--0-0-0-0-0-0-0-0-0-0-0-0-0-0-0-0-|--1-1-1-1-1-1-1-1-1-1-1-1-3-3-5-5-|


                                                                      
----------------------------------|----------------------------------|
----------------------------------|----------------------------------|
----------------------------------|--------------3-3-3-3-3-3-5-5-5-5-|
--0-0-0-0-0-0-0-0-0-0-0-0-0-0-0-0-|--1-1-1-1-1-1---------------------|


                                                                      
----------------------------------|----------------------------------|
----------------------------------|----------------------------------|
----------------------------------|----------------------------------|
--0-0-0-0-0-0-1-1-1-1-1-1-1-1-1-1-|--0-0-0-0-0-0-1-1-1-1-1-1-1-1-1-1-|


                                                                      
----------------------------------|----------------------------------|
----------------------------------|----------------------------------|
----------------------------------|----------------------------------|
--0-0-0-0-0-0-1-1-1-1-1-1-1-1-1-1-|--0-0-0-0-0-0-1-1-1-1-1-1-1-1-1-1-|


                                                               
--------------------|--------------------|--------------------|
--------------------|--------------------|--------------------|
--7------3----------|---------6----------|--7------3----------|
--------------------|--0-----------------|--------------------|


                                                        
--------------------|----------------------------------|
--------------------|----------------------------------|
--------------------|--7-7-7-7-7-7-3-3-3-3-3-3-3-3-3-3-|
--0------1----------|----------------------------------|


                                                                      
----------------------------------|----------------------------------|
----------------------------------|----------------------------------|
--------------6-6-6-6-6-6-6-6-6-6-|--7-7-7-7-7-7-3-3-3-3-3-3-3-3-3-3-|
--0-0-0-0-0-0---------------------|----------------------------------|


                                                                      
----------------------------------|----------------------------------|
----------------------------------|----------------------------------|
----------------------------------|--7-7-7-7-7-7-3-3-3-3-3-3-3-3-3-3-|
--0-0-0-0-0-0-1-1-1-1-1-1-1-1-1-1-|----------------------------------|


                                                                      
----------------------------------|----------------------------------|
----------------------------------|----------------------------------|
--------------6-6-6-6-6-6-6-6-6-6-|--7-7-7-7-7-7-3-3-3-3-3-3-3-3-3-3-|
--0-0-0-0-0-0---------------------|----------------------------------|


                                                                      
----------------------------------|----------------------------------|
----------------------------------|----------------------------------|
----------------------------------|--7-7-7-7-7-7-3-3-3-3-3-3-3-3-3-3-|
--0-0-0-0-0-0-1-1-1-1-1-1-1-1-1-1-|----------------------------------|


                                                                      
----------------------------------|----------------------------------|
----------------------------------|----------------------------------|
--------------6-6-6-6-6-6-6-6-6-6-|--7-7-7-7-7-7-3-3-3-3-3-3-3-3-3-3-|
--0-0-0-0-0-0---------------------|----------------------------------|


                                                                      
----------------------------------|----------------------------------|
----------------------------------|----------------------------------|
----------------------------------|----------------------------------|
--0-0-0-0-0-0-1-1-1-1-1-1-1-1-1-1-|--0-0-0-0-0-0-0-0-0-0-0-0-0-0-0-0-|


                                                                      
----------------------------------|----------------------------------|
----------------------------------|----------------------------------|
----------------------------------|----------------------------------|
--3-3-3-3-3-3-3-3-3-3-3-3-3-3-3-3-|--0-0-0-0-0-0-0-0-0-0-0-0-0-0-0-0-|


                                                                      
----------------------------------|----------------------------------|
----------------------------------|----------------------------------|
----------------------------------|--4-4-4-4-4-4-4-4-4-4-4-4-4-4-4-4-|
--3-3-3-3-3-3-3-3-3-3-3-3-3-3-3-3-|----------------------------------|


                                                                      
----------------------------------|----------------------------------|
----------------------------------|----------------------------------|
----------------------------------|--4-4-4-4-4-4-4-4-4-4-4-4-4-4-4-4-|
--3-3-3-3-3-3-3-3-3-3-3-3-3-3-3-3-|----------------------------------|


                                                                      
----------------------------------|----------------------------------|
----------------------------------|----------------------------------|
----------------------------------|----------------------------------|
--3-3-3-3-3-3-3-3-3-3-3-3-3-3-3-3-|--0-0-0-0-0-0-0-0-0-0-0-0-0-0-0-0-|


                                                                      
----------------------------------|----------------------------------|
----------------------------------|----------------------------------|
----------------------------------|----------------------------------|
--3-3-3-3-3-3-3-3-3-3-3-3-3-3-3-3-|--0-0-0-0-0-0-0-0-0-0-0-0-0-0-0-0-|


                                                                      
----------------------------------|----------------------------------|
----------------------------------|----------------------------------|
----------------------------------|--4-4-4-4-4-4-4-4-4-4-4-4-4-4-4-4-|
--3-3-3-3-3-3-3-3-3-3-3-3-3-3-3-3-|----------------------------------|


                                                                      
----------------------------------|----------------------------------|
----------------------------------|----------------------------------|
----------------------------------|--4-4-4-4-4-4-4-4-4-4-4-4-4-4-4-4-|
--3-3-3-3-3-3-3-3-3-3-3-3-3-3-3-3-|----------------------------------|


                                                                      
----------------------------------|----------------------------------|
----------------------------------|----------------------------------|
----------------------------------|--2-2-2-2-2-2-2-2-----------------|
--3-3-3-3-3-3-3-3-3-3-3-3-3-3-3-3-|------------------2-2-2-2-2-2-2-2-|


                                                                      
----------------------------------|----------------------------------|
----------------------------------|----------------------------------|
--2-2-2-2-2-2-2-2-----------------|--2-2-2-2-2-2-2-2-----------------|
------------------3-3-3-3-3-3-3-3-|------------------2-2-2-2-2-2-2-2-|


                                                                      
----------------------------------|----------------------------------|
----------------------------------|----------------------------------|
------------------1-1-1-1-1-1-1-1-|--2-2-2-2-2-2-2-2-----------------|
--3-3-3-3-3-3-3-3-----------------|------------------2-2-2-2-2-2-2-2-|


                                                                      
----------------------------------|----------------------------------|
----------------------------------|----------------------------------|
--2-2-2-2-2-2-2-2-----------------|--2-2-2-2-2-2-2-2-----------------|
------------------3-3-3-3-3-3-3-3-|------------------2-2-2-2-2-2-2-2-|


                                                                             
----------------------------------|--------------------|--------------------|
----------------------------------|--------------------|--------------------|
------------------1-1-1-1-1-1-1-1-|--7------3----------|---------6----------|
--3-3-3-3-3-3-3-3-----------------|--------------------|--0-----------------|


                                                                      
----------------------------------|----------------------------------|
----------------------------------|----------------------------------|
--7-7-7-7-7-7-3-3-3-3-3-3-3-3-3-3-|----------------------------------|
----------------------------------|--0-0-0-0-0-0-1-1-1-1-1-1-1-1-1-1-|


                                                                      
----------------------------------|----------------------------------|
----------------------------------|----------------------------------|
--7-7-7-7-7-7-3-3-3-3-3-3-3-3-3-3-|--------------6-6-6-6-6-6-6-6-6-6-|
----------------------------------|--0-0-0-0-0-0---------------------|


                                                                      
----------------------------------|----------------------------------|
----------------------------------|----------------------------------|
--7-7-7-7-7-7-3-3-3-3-3-3-3-3-3-3-|----------------------------------|
----------------------------------|--0-0-0-0-0-0-1-1-1-1-1-1-1-1-1-1-|


                                                                      
----------------------------------|----------------------------------|
----------------------------------|----------------------------------|
--7-7-7-7-7-7-3-3-3-3-3-3-3-3-3-3-|--------------6-6-6-6-6-6-6-6-6-6-|
----------------------------------|--0-0-0-0-0-0---------------------|


                                                                      
----------------------------------|----------------------------------|
----------------------------------|----------------------------------|
--7-7-7-7-7-7-3-3-3-3-3-3-3-3-3-3-|----------------------------------|
----------------------------------|--0-0-0-0-0-0-1-1-1-1-1-1-1-1-1-1-|


                                                                      
----------------------------------|----------------------------------|
----------------------------------|----------------------------------|
--7-7-7-7-7-7-3-3-3-3-3-3-3-3-3-3-|--------------6-6-6-6-6-6-6-6-6-6-|
----------------------------------|--0-0-0-0-0-0---------------------|


                                                                      
----------------------------------|----------------------------------|
----------------------------------|----------------------------------|
--7-7-7-7-7-7-3-3-3-3-3-3-3-3-3-3-|----------------------------------|
----------------------------------|--0-0-0-0-0-0-1-1-1-1-1-1-1-1-1-1-|


                                                                      
----------------------------------|----------------------------------|
----------------------------------|----------------------------------|
----------------------------------|----------------------------------|
--0-0-0-0-0-0-0-0-0-0-0-0-0-0-0-0-|--1-1-1-1-1-1-1-1-1-1-1-1-3-3-5-5-|


                                                                      
----------------------------------|----------------------------------|
----------------------------------|----------------------------------|
----------------------------------|------------------3-3-3-3-3-3-3-3-|
--0-0-0-0-0-0-0-0-0-0-0-0-0-0-0-0-|--1-1-1-1-1-1-1-1-----------------|


                                                                      
----------------------------------|----------------------------------|
----------------------------------|----------------------------------|
----------------------------------|----------------------------------|
--0-0-0-0-0-0-0-0-0-0-0-0-0-0-0-0-|--1-1-1-1-1-1-1-1-1-1-1-1-3-3-5-5-|


                                                                      
----------------------------------|----------------------------------|
----------------------------------|----------------------------------|
----------------------------------|------------------3-3-3-3-3-3-3-3-|
--0-0-0-0-0-0-0-0-0-0-0-0-0-0-0-0-|--1-1-1-1-1-1-1-1-----------------|


                                                                      
----------------------------------|----------------------------------|
----------------------------------|----------------------------------|
----------------------------------|----------------------------------|
--5-5-5-5-5-5-5-5-5-5-5-5-5-5-5-5-|--1-1-1-1-1-1-1-1-1-1-1-1-1-1-1-1-|


                                                                      
----------------------------------|----------------------------------|
----------------------------------|----------------------------------|
----------------------------------|----------------------------------|
--5-5-5-5-5-5-5-5-5-5-5-5-5-5-5-5-|--6-6-6-6-6-6-3-3-3-3-3-3-6-6-6-6-|


                                                                      
----------------------------------|----------------------------------|
----------------------------------|----------------------------------|
----------------------------------|----------------------------------|
--5-5-5-5-5-5-5-5-5-5-5-5-5-5-5-5-|--1-1-1-1-1-1-1-1-1-1-1-1-1-1-1-1-|


                                                                      
----------------------------------|----------------------------------|
----------------------------------|----------------------------------|
----------------------------------|----------------------------------|
--5-5-5-5-5-5-5-5-5-5-5-5-5-5-5-5-|--6-6-6-6-6-6-3-3-3-3-3-3-6-6-6-6-|


                                                                      
----------------------------------|----------------------------------|
----------------------------------|----------------------------------|
----------------------------------|----------------------------------|
--5-5-5-5-5-5-5-5-5-5-5-5-5-5-5-5-|--1-1-1-1-1-1-1-1-1-1-1-1-1-1-1-1-|


                                                                      
----------------------------------|----------------------------------|
----------------------------------|----------------------------------|
----------------------------------|----------------------------------|
--5-5-5-5-5-5-5-5-5-5-5-5-5-5-5-5-|--6-6-6-6-6-6-3-3-3-3-3-3-6-6-6-6-|


                                                                      
----------------------------------|----------------------------------|
----------------------------------|----------------------------------|
----------------------------------|----------------------------------|
--5-5-5-5-5-5-5-5-5-5-5-5-5-5-5-5-|--1-1-1-1-1-1-1-1-1-1-1-1-1-1-1-1-|


                                                                      
----------------------------------|----------------------------------|
----------------------------------|----------------------------------|
----------------------------------|----------------------------------|
--5-5-5-5-5-5-5-5-5-5-5-5-5-5-5-5-|--6-6-6-6-6-6-3-3-3-3-3-3-6-6-6-6-|


                                                                      
----------------------------------|----------------------------------|
----------------------------------|----------------------------------|
----------------------------------|----------------------------------|
--0-0-0-0-0-0-0-0-0-0-0-0-0-0-0-0-|--3-3-3-3-3-3-3-3-3-3-3-3-3-3-3-3-|


                                                                      
----------------------------------|----------------------------------|
----------------------------------|----------------------------------|
----------------------------------|----------------------------------|
--0-0-0-0-0-0-0-0-0-0-0-0-0-0-0-0-|--3-3-3-3-3-3-3-3-3-3-3-3-3-3-3-3-|


                                                                      
----------------------------------|----------------------------------|
----------------------------------|----------------------------------|
--4-4-4-4-4-4-4-4-4-4-4-4-4-4-4-4-|----------------------------------|
----------------------------------|--3-3-3-3-3-3-3-3-3-3-3-3-3-3-3-3-|


                                                                      
----------------------------------|----------------------------------|
----------------------------------|----------------------------------|
--4-4-4-4-4-4-4-4-4-4-4-4-4-4-4-4-|----------------------------------|
----------------------------------|--3-3-3-3-3-3-3-3-3-3-3-3-3-3-3-3-|


                                                                      
----------------------------------|----------------------------------|
----------------------------------|----------------------------------|
----------------------------------|----------------------------------|
--0-0-0-0-0-0-0-0-0-0-0-0-0-0-0-0-|--3-3-3-3-3-3-3-3-3-3-3-3-3-3-3-3-|


                                                                      
----------------------------------|----------------------------------|
----------------------------------|----------------------------------|
----------------------------------|----------------------------------|
--0-0-0-0-0-0-0-0-0-0-0-0-0-0-0-0-|--3-3-3-3-3-3-3-3-3-3-3-3-3-3-3-3-|


                                                                      
----------------------------------|----------------------------------|
----------------------------------|----------------------------------|
--4-4-4-4-4-4-4-4-4-4-4-4-4-4-4-4-|----------------------------------|
----------------------------------|--3-3-3-3-3-3-3-3-3-3-3-3-3-3-3-3-|


                                                                      
----------------------------------|----------------------------------|
----------------------------------|----------------------------------|
--4-4-4-4-4-4-4-4-4-4-4-4-4-4-4-4-|----------------------------------|
----------------------------------|--3-3-3-3-3-3-3-3-3-3-3-3-3-3-3-3-|


                                                                      
----------------------------------|----------------------------------|
----------------------------------|----------------------------------|
----------------------------------|----------------------------------|
--5-5-5-5-5-5-5-5-5-5-5-5-5-5-5-5-|--1-1-1-1-1-1-1-1-1-1-1-1-1-1-1-1-|


                                                                      
----------------------------------|----------------------------------|
----------------------------------|----------------------------------|
----------------------------------|----------------------------------|
--5-5-5-5-5-5-5-5-5-5-5-5-5-5-5-5-|--6-6-6-6-6-6-3-3-3-3-3-3-6-6-6-6-|


                                                                      
----------------------------------|----------------------------------|
----------------------------------|----------------------------------|
----------------------------------|----------------------------------|
--5-5-5-5-5-5-5-5-5-5-5-5-5-5-5-5-|--1-1-1-1-1-1-1-1-1-1-1-1-1-1-1-1-|


                                                                      
----------------------------------|----------------------------------|
----------------------------------|----------------------------------|
----------------------------------|----------------------------------|
--5-5-5-5-5-5-5-5-5-5-5-5-5-5-5-5-|--6-6-6-6-6-6-3-3-3-3-3-3-6-6-6-6-|


                                                                      
----------------------------------|----------------------------------|
----------------------------------|----------------------------------|
----------------------------------|----------------------------------|
--5-5-5-5-5-5-5-5-5-5-5-5-5-5-5-5-|--1-1-1-1-1-1-1-1-1-1-1-1-1-1-1-1-|


                                                                      
----------------------------------|----------------------------------|
----------------------------------|----------------------------------|
----------------------------------|----------------------------------|
--5-5-5-5-5-5-5-5-5-5-5-5-5-5-5-5-|--6-6-6-6-6-6-3-3-3-3-3-3-6-6-6-6-|


                                                                      
----------------------------------|----------------------------------|
----------------------------------|----------------------------------|
----------------------------------|----------------------------------|
--5-5-5-5-5-5-5-5-5-5-5-5-5-5-5-5-|--1-1-1-1-1-1-1-1-1-1-1-1-1-1-1-1-|


                                                                      
----------------------------------|----------------------------------|
----------------------------------|----------------------------------|
----------------------------------|----------------------------------|
--5-5-5-5-5-5-5-5-5-5-5-5-5-5-5-5-|--6-6-6-6-6-6-3-3-3-3-3-3-6-6-6-6-|


                      
--------------------||
--------------------||
--------------------||
--5/-------0--------||





Comments


Popular Dark Funeral tabs & chords
Open The Gates Bass Tabs
An Apprentice Of Satan Tabs
Atrum Regina Intro Tabs
Bloodfrozen Tabs
Ineffable King Of Darkness Tabs
Shadows Over Transylvania Tabs
The Arrival Of Satans Empire Tabs
The Dawn No More Rises Tabs
Thy Legions Come Tabs
Vobiscum Satanas Tabs


Song lyrics



↑ Back to top | Tablatures and chords are parodies/interpretations of the original songs. You may use it for private study, scholarship, research or language learning purposes only
© 2014 AZChords.com Contact us | Privacy policy | DMCA | Add/correct tabs | Request tabs | Top 50 tabs