» » »

Dark Funeral, Call From The Grave Tabs (ver.2)

Artists:  A B C D E F G H I J K L M N O P Q R S T U V W X Y Z # 

Call From The Grave Tabs (ver.2)

Dark Funeral Tabs
Rating:
0/5 (0 votes)
Call From The Grave lessons Tabs too difficult? Try these video lessons and learn fast
                Band:  (DARK FUNERAL)

Copyright (c)  (NECROPOLIS RECORDS) (2000)
Version 1.0 - (2004)



.  - palm mute           /  - slide up to
\  - slide down to       ~  - vibrato
h  - hammer on           b  - Bend
p  - pull off            Suffixes for bend
t  - tap                 f  - full bend    h - half bend
ph - pinched harmonic    q  - quarter bend t - tap bend
*  - see comment         ^  - Hold bend    r release bend
x  - Stuccatto           ~  - vibrato bend
,  - slight palm mute    () - ghost note, sustained note
"  - tremolo note        <> - Trill


Tunning D G C F A D


INTRO (4 TIMES)
-----
D |-------------------------------------------------| 
A |-------------------------------------------------| 
F |-------------------------------------------------| 
C |-----11--11--11--6--6--5--5--5--5--13--13--------| 
G |-----11--11--11--6--6--5--5--5--5--13--13--------| 
D |-----9---9---9---4--4--3--3--3--3--11--11--------| 


RIFF 2 VERSE (6 TIMES)

D |-------------------------------------------------| 
A |-------------------------------------------------| 
F |-------------------------------------------------| 
C |-----3-3-3-3-4-4-4-4-4-3-3-3-3-3-2-2-2-2-2-------| 
G |-----3-3-3-3-4-4-4-4-4-3-3-3-3-3-2-2-2-2-2-------| 
D |-----1-1-1-1-2-2-2-2-2-1-1-1-1-1-0-0-0-0-0-------| 


INTRO AGAIN (4 TIMES)
-----
D |-------------------------------------------------| 
A |-------------------------------------------------| 
F |-------------------------------------------------| 
C |-----11--11--11--6--6--5--5--5--5--13--13--------| 
G |-----11--11--11--6--6--5--5--5--5--13--13--------| 
D |-----9---9---9---4--4--3--3--3--3--11--11--------| 


RIFF 2 VERSE (6 TIMES)

D |-------------------------------------------------| 
A |-------------------------------------------------| 
F |-------------------------------------------------| 
C |-----3-3-3-3-4-4-4-4-4-3-3-3-3-3-2-2-2-2-2-------| 
G |-----3-3-3-3-4-4-4-4-4-3-3-3-3-3-2-2-2-2-2-------| 
D |-----1-1-1-1-2-2-2-2-2-1-1-1-1-1-0-0-0-0-0-------| 


RIFF 3 (8 TIMES)

D |-------------------------------------------------| 
A |-------------------------------------------------| 
F |-------------------------------------------------| 
C |---------------------------------------5-4-------| 
G |---h-h---------h-h---------h-h---------5-4-------| 
D |---1-2-000000--1-2-000000--1-2-000000--3-2-(0)---| 
          ......      ......      ......


RIFF 4 UNDER SOLO (4 TIMES)

D |-------------------------------------------------| 
A |-------------------------------------------------| 
F |-------------------------------------------------| 
C |-9-9-9-999-7-7--7-999---5-5-5-5-4-4-4-7-7-7------| 
G |-7-7-7-777-5-5--5-777-0-3-3-3-3-2-2-2-5-5-5-(0)--| 
D |-------------------------------------------------| 


SOLO (FIRST PART) WITH RIFF 4
        
D |-------------------------------------------------| 
A |-/17------/17------/17------/17--17-19-20-22--19-| 
F |-------------------------------------------------| 
C |-------------------------------------------------| 
G |-------------------------------------------------| 
D |-------------------------------------------------| 


D |---h---------------------------------------------| 
A |-20-19-17--17-19 20-22--20-22-20-19--17--17-19-20| 
F |-------------------------------------------------| 
C |-------------------------------------------------| 
G |-------------------------------------------------| 
D |-------------------------------------------------| 


D |----19-20-24------24-24-24-24--------------------| 
A |-22----------------------------------------------| 
F |-------------------------------------------------| 
C |-------------------------------------------------| 
G |-------------------------------------------------| 
D |-------------------------------------------------| 


BASS PART UNDER SECOND PART OF SOLO (16 TIMES)

D |-------------------------------------------------| 
A |-------------------------------------------------| 
F |-------------------------------------------------| 
C |-------------------------------------------------| 
G |-------------------------------------------------| 
D |-0--0--1--1--1-0---------------------------------| 


SOLO (SECOND PART) WITH BASS PART

D |--------------------------/19-19---22-21-21-19-19| 
A |-/17-17---20-19-19-17-17-------------------------| 
F |-------------------------------------------------| 
C |-------------------------------------------------| 
G |-------------------------------------------------| 
D |-------------------------------------------------| 



D |-12-10-8-7-7--12-10-8-7-7--7-5-3-2-2--7-5-3-2-2--| 
A |-------------------------------------------------| 
F |-------------------------------------------------| 
C |-------------------------------------------------| 
G |-------------------------------------------------| 
D |-------------------------------------------------| 


INTRO AGAIN (4 TIMES)
-----
D |-------------------------------------------------| 
A |-------------------------------------------------| 
F |-------------------------------------------------| 
C |-----11--11--11--6--6--5--5--5--5--13--13--------| 
G |-----11--11--11--6--6--5--5--5--5--13--13--------| 
D |-----9---9---9---4--4--3--3--3--3--11--11--------|


RIFF 3 (8 TIMES)

D |-------------------------------------------------| 
A |-------------------------------------------------| 
F |-------------------------------------------------| 
C |---------------------------------------5-4-------| 
G |---h-h---------h-h---------h-h---------5-4-------| 
D |---1-2-000000--1-2-000000--1-2-000000--3-2-(0)---| 
          ......      ......      ...... 


END
            
Submit corrections

comments powered by Disqus
↑ Back to top | Dark Funeral Tabs for Call From The Grave. Lyrics for acoustic guitar and electric guitar. Tablatures and chords are parodies/interpretations of the original songs. You may use it for private study, scholarship, research or language learning purposes only