» » »

Darkest Hour, With Friends Like These Tabs (ver.1)

Artists:  A B C D E F G H I J K L M N O P Q R S T U V W X Y Z # 

With Friends Like These Tabs (ver.1)

Darkest Hour Tabs
 Rating:
4/5 (4 votes)
With Friends Like These lessons Tabs too difficult? Try these video lessons and learn fast
1
                -------------------------------------------------------------------------------
                        WITH FRIENDS LIKE THEESE - Darkest Hour
-------------------------------------------------------------------------------

Tuning: Dropped C

Part 1 Main Riff

D|-----------------------------------------------------------------------------------------------|
A|-----------------------------------------------------------------------------------------------|
F|-----------------------------------------------------------------------------------------------| 
C|-0------------------------------------------------0--------------------------------------------|
G|-0--5-3h5---3--5-3h5---5--5-3h5---5--5-5-6--6-6---0--5-3h5---3---5-3h5---5--5-3h5---6----5---3-|
C|-0----------3----------5----------5--5-5-6--6-6---0----------3-----------5----------6----5---3-|
    Played 3 times



Part 2

D|--------------------------------------------------------------------|
A|--------------------------------------------------------------------|
F|--------------------------------------------------------------------| 
C|-0---------------3---------------5----------------6-----------------|   X2
G|-0----5-5-5-5-5--3----5-5-5-5-5--5----5-5-5-5-5---6----5-5-5-5-5----|
C|-0---------------3---------------5----------------6-----------------|


Part 3

D|-----------------------|
A|-----------------------|
F|-----------------------| 
C|-6-----5-----3-----5---|   X2
G|-6-----5-----3-----5---|
C|-6-----5-----3-----3---|


D|-----------|
A|-----------|
F|-----------|
C|-3-5-------| 
G|-3-5-------|
C|-3-5-------|


Repeat Part 1, 2 and 3


D|-------------------------|
A|-------------------------|
F|-------------------------| 
C|-0-----------------------|   Repeat A LOT!!
G|-0---5-3h5---3---5-3h5---|
C|-0-----------3-----------|


D|-------------------------|
A|-------------------------|
F|-------------------------| 
C|-3-----------------------|   End! Simples =)
G|-3--3h5\-----------------|
C|-3--3h5\-----------------|


Fantastic song, pretty easy to figure out. Sounds very close to the actual track but not 100% sure.
other guitars too. Oh and KRIS NORRIS is awesome! Thanks!



************************************

| /   slide up
| \   slide down
| h   hammer-on
| p   pull-off
| ~   vibrato
| +   harmonic
| x   Mute note
| b   Bend
| pb  Pre-bend
| br  Bend release
| pbr Pre-bend release
| brb Bend release bend

************************************
            
Submit corrections

comments powered by Disqus
↑ Back to top | Darkest Hour Tabs for With Friends Like These. Lyrics for acoustic guitar and electric guitar. 1 Tablatures and chords are parodies/interpretations of the original songs. You may use it for private study, scholarship, research or language learning purposes only