>
 >
With A Thousand Words To Say But One

With A Thousand Words To Say But One Guitar Tabs

Darkest Hour - With A Thousand Words To Say But One chords, tabs, tablatures, lyrics

Guitar lessons | Add/correct | Request | Top 50 tabs Artists:  A B C D E F G H I J K L M N O P Q R S T U V W X Y Z 0-9

With A Thousand Words To Say But One Guitar Tabs – Darkest Hour

CD, Sheet music, Poster

Do you like With A Thousand Words To Say But One? Share with your friends now
Bass TabsTabsTabs v2
----------------------------------------------------------------------------
----------------------------------------------------------------------------

Tuning:Drop C

Guitar 1
Intro
D|--------------------------------------------------------------------------|
A|--------------------------------------------------------------------------|
F|--------------------------------------------------------------------------|
C|----7-----8---8-----7-----8---8-----7-----8---8-----7-----10---10---------|
G|--------------------------------------------------------------------------|
C|8-8---8-8---8---7-7---7-7---7---5-5---5-5---5---5-5---5-5----5------------|
  * *   * *   *   * *   * *   *   * *   * *   *   * *   * *    *
D|---------------------------------------------------------------------------|
A|---------------------------------------------------------------------------|
F|---------------------------------------------------------------------------|
C|----12-----12---12-----12-----12---12-----12-----12---12-----12---10101010-|
G|------------------------------------------------------------------10101010-|
C|0-0----0-0----0----0-0----0-0----0----0-0----0-0----0----0-0----0-10101010-|
  * *    * *    *    * *    * *    *    * *    * *    *    * *    *
 Guitar 2
D|---------------------------------------------------------------------------|
A|---------------------------------------------------------------------------|
F|---------------------------------------------------------------------------|
C|---------------------------------------------------------------------------|
G|8-8---8-8---7---5-5--5--5-----------------------------------------10101010-|
C|8-8---8-8---7---5-5--5--5---10---120----10---120----10---120---10-10101010-|


 Verse
 Guitar 1
D|--------------------------------------------------------------------------|
A|--------------------------------------------------------------------------|
F|--------------------------------------------------------------------------|
C|----7-----8---8-----7-----8---8-----7-----8---8-----7-----10---10---------|
G|--------------------------------------------------------------------------|
C|8-8---8-8---8---7-7---7-7---7---5-5---5-5---5---5-5---5-5----5------------|
  * *   * *   *   * *   * *   *   * *   * *   *   * *   * *    *
D|--------------------------------------------------------------------------|
A|--------------------------------------------------------------------------|
F|--------------------------------------------------------------------------|
C|--------------------------------------------------------------------------|
G|----8-----8---8-----8-----8---8-----8-----8---8-------10-------10----10---|
C|0-0---0-0---0---0-0---0-0---0---0-0---0-0---0---10-10----10-10----10------|
  * *   * *   *   * *   * *   *   * *   * *   *    *  *     *  *     *
D|--------------------------------------------------------------------------|
A|--------------------------------------------------------------------------|
F|--------------------------------------------------------------------------|
C|----7-----8---8-----7-----8---8-----7-----8---8-----7-----10---10---------|
G|--------------------------------------------------------------------------|
C|8-8---8-8---8---7-7---7-7---7---5-5---5-5---5---5-5---5-5----5------------|
  * *   * *   *   * *   * *   *   * *   * *   *   * *   * *    *
D|---------------------------------------------------------------------------|
A|---------------------------------------------------------------------------|
F|---------------------------------------------------------------------------|
C|----12-----12---12-----12-----12---12-----12-----12---12-----12---10101010-|
G|---------------------------------------------------------------------------|
C|0-0----0-0----0----0-0----0-0----0----0-0----0-0----0----0-0----0-10101010-|
  * *    * *    *    * *    * *    *    * *    * *    *    * *    *

 Guitar 2
D|--------------------------------------------------------------------------|
A|--------------------------------------------------------------------------|
F|--------------------------------------------------------------------------|
C|----7-----8---8-----7-----8---8-----7-----8---8-----7-----10---10---------|
G|--------------------------------------------------------------------------|
C|8-8---8-8---8---7-7---7-7---7---5-5---5-5---5---5-5---5-5----5------------|
  * *   * *   *   * *   * *   *   * *   * *   *   * *   * *    *
D|--------------------------------------------------------------------------|
A|--------------------------------------------------------------------------|
F|--------------------------------------------------------------------------|
C|--------------------------------------------------------------------------|
G|----8-----8---8-----8-----8---8-----8-----8---8-------7-------7----7------|
C|0-0---0-0---0---0-0---0-0---0---0-0---0-0---0---10-10---10-10---10--------|
  * *   * *   *   * *   * *   *   * *   * *   *    *  *    *  *    *
D|--------------------------------------------------------------------------|
A|--------------------------------------------------------------------------|
F|--------------------------------------------------------------------------|
C|----7-----8---8-----7-----8---8-----7-----8---8-----7-----10---10---------|
G|--------------------------------------------------------------------------|
C|8-8---8-8---8---7-7---7-7---7---5-5---5-5---5---5-5---5-5----5------------|
  * *   * *   *   * *   * *   *   * *   * *   *   * *   * *    *
D|--------------------------------------------------------------------------|
A|--------------------------------------------------------------------------|
F|--------------------------------------------------------------------------|
C|-----------------------------------------------------------10101010-------|
G|----8-----8---8-----8-----8---8-----8-----8---8-------7----10101010-------|
C|0-0---0-0---0---0-0---0-0---0---0-0---0-0---0---10-10---10-10101010-------|
  * *   * *   *   * *   * *   *   * *   * *   *    *  *    *


Tap This Whole Section Twice Before Chorus (exept last four notes)
 Guitar 1
D|--------------------------------------------------------------------------|
A|--------------------------------------------------------------------------|
F|--------------------------------------------------------------------------|
C|12-8-0-12-7-0-12-8-0-12-7-0-12-8-0-12-7-0-12-5-0-12-7-0-12-10-0-12-8-0----|
G|--------------------------------------------------------------------------|
C|--------------------------------------------------------------------------|

D|--------------------------------------------------------------------------|
A|--------------------------------------------------------------------------|
F|--------------------------------------------------------------------------|
C|12-10-0-12-8-0-12-10-0-12-8-0-12-7-0-12-8-0-12-10-0-12-8-0-12-10-0-12-8-0-|
G|--------------------------------------------------------------------------|
C|--------------------------------------------------------------------------|

D|--------------------------------------------------------------------------|
A|--------------------------------------------------------------------------|
F|--------------------------------------------------------------------------|
C|10--------8------7-----5--------------------------------------------------|
G|--------------------------------------------------------------------------|
C|--------------------------------------------------------------------------|

 Guitar 2
D|--------------------------------------------------------------------------|
A|--------------------------------------------------------------------------|
F|--------------------------------------------------------------------------|
C|--------------------------------------------------------------------------|
G|--------------------------------------------------------------------------|
C|888888888888888888777777555555555555101010101010000000000000000000000-----|

D|--------------------------------------------------------------------------|
A|--------------------------------------------------------------------------|
F|--------------------------------------------------------------------------|
C|--------------------------------------------------------------------------|
G|--------------------------------------------------------------------------|
C|101010121212121212121212121212101212121212101010101010--------------------|


 Chorus
 Guitar 1
After The 16 Times There's A Little Solo Thing Before The Verse
D|--------------------|     D|--------------------|
A|--------------------|     A|--------------------|
F|10------9------9/12-|(X16)F|-----9---------91012|
C|---10-8---10-8------|     C|81012-121081012-----|
G|--------------------|     G|--------------------|
C|--------------------|     C|--------------------|
 Guitar 2
D|---------------------------------------------------------------------------|
A|---------------------------------------------------------------------------|
F|---------------------------------------------------------------------------|
C|---------------------------------------------------------------------------|
G|8-8---8-8---7---5-5---5---5-5------------------------------------------12~-|
C|8-8---8-8---7---5-5---5---5-5---10---120-00-10---120-00-10---120-00-10-12~-|


 Verse
 Guitar 1
D|--------------------------------------------------------------------------|
A|--------------------------------------------------------------------------|
F|--------------------------------------------------------------------------|
C|----7-----8---8-----7-----8---8-----7-----8---8-----7-----10---10---------|
G|--------------------------------------------------------------------------|
C|8-8---8-8---8---7-7---7-7---7---5-5---5-5---5---5-5---5-5----5------------|
  * *   * *   *   * *   * *   *   * *   * *   *   * *   * *    *
D|--------------------------------------------------------------------------|
A|--------------------------------------------------------------------------|
F|--------------------------------------------------------------------------|
C|--------------------------------------------------------------------------|
G|----8-----8---8-----8-----8---8-----8-----8---8-------10-------10----10---|
C|0-0---0-0---0---0-0---0-0---0---0-0---0-0---0---10-10----10-10----10------|
  * *   * *   *   * *   * *   *   * *   * *   *    *  *     *  *     *
D|--------------------------------------------------------------------------|
A|--------------------------------------------------------------------------|
F|--------------------------------------------------------------------------|
C|----7-----8---8-----7-----8---8-----7-----8---8-----7-----10---10---------|
G|--------------------------------------------------------------------------|
C|8-8---8-8---8---7-7---7-7---7---5-5---5-5---5---5-5---5-5----5------------|
  * *   * *   *   * *   * *   *   * *   * *   *   * *   * *    *
D|---------------------------------------------------------------------------|
A|---------------------------------------------------------------------------|
F|---------------------------------------------------------------------------|
C|----12-----12---12-----12-----12---12-----12-----12---12-----12---10101010-|
G|---------------------------------------------------------------------------|
C|0-0----0-0----0----0-0----0-0----0----0-0----0-0----0----0-0----0-10101010-|
  * *    * *    *    * *    * *    *    * *    * *    *    * *    *
Guitar 2
D|--------------------------------------------------------------------------|
A|--------------------------------------------------------------------------|
F|--------------------------------------------------------------------------|
C|----7-----8---8-----7-----8---8-----7-----8---8-----7-----10---10---------|
G|--------------------------------------------------------------------------|
C|8-8---8-8---8---7-7---7-7---7---5-5---5-5---5---5-5---5-5----5------------|
  * *   * *   *   * *   * *   *   * *   * *   *   * *   * *    *
D|--------------------------------------------------------------------------|
A|--------------------------------------------------------------------------|
F|--------------------------------------------------------------------------|
C|--------------------------------------------------------------------------|
G|----8-----8---8-----8-----8---8-----8-----8---8-------7-------7----7------|
C|0-0---0-0---0---0-0---0-0---0---0-0---0-0---0---10-10---10-10---10--------|
  * *   * *   *   * *   * *   *   * *   * *   *    *  *    *  *    *
D|--------------------------------------------------------------------------|
A|--------------------------------------------------------------------------|
F|--------------------------------------------------------------------------|
C|----7-----8---8-----7-----8---8-----7-----8---8-----7-----10---10---------|
G|--------------------------------------------------------------------------|
C|8-8---8-8---8---7-7---7-7---7---5-5---5-5---5---5-5---5-5----5------------|
  * *   * *   *   * *   * *   *   * *   * *   *   * *   * *    *
D|--------------------------------------------------------------------------|
A|--------------------------------------------------------------------------|
F|--------------------------------------------------------------------------|
C|-----------------------------------------------------------10101010-------|
G|----8-----8---8-----8-----8---8-----8-----8---8-------7----10101010-------|
C|0-0---0-0---0---0-0---0-0---0---0-0---0-0---0---10-10---10-10101010-------|
  * *   * *   *   * *   * *   *   * *   * *   *    *  *    *

(Play This Part Clean)
D|--------------------------------------------------------------------------|
A|--------------------------------------------------------------------------|
F|--------------------------------------------------------------------------|
C|----7-----8---8-----7-----8---8-----7-----8---8-----7-----10---10---------|
G|--------------------------------------------------------------------------|
C|8-8---8-8---8---7-7---7-7---7---5-5---5-5---5---5-5---5-5----5------------|

D|---------------------------------------------------------------------------|
A|---------------------------------------------------------------------------|
F|---------------------------------------------------------------------------|
C|----12-----12---12-----12-----12---12-----12-----12---12-----12-------10---|
G|--------------------------------------------------------------------10--10-|
C|0-0----0-0----0----0-0----0-0----0----0-0----0-0----0----0-0----0-10-------|

D|--------------------------------------------------------------------------|
A|--------------------------------------------------------------------------|
F|--------------------------------------------------------------------------|
C|----7-----8---8-----7-----8---8-----7-----8---8-----7-----10---10---------|
G|--------------------------------------------------------------------------|
C|8-8---8-8---8---7-7---7-7---7---5-5---5-5---5---5-5---5-5----5------------|

D|--------------------------------------------------------------------------|
A|--------------------------------------------------------------------------|
F|--------------------------------------------------------------------------|
C|----12-----15---14-----12-----15---14-----12-----15---14----12-------10---|
G|--0------0-----------0------0-----------0------0----------0----0---10--10-|
C|0------0------0----0------0------0----0------0------0---0--------10-------|
  The second time you play it, it fades into this
D|--------------------------------------------------------------------------|
A|--10---10---10---8----10---10---10---8----10---10---10---10---10---10-----|
F|--7----7----7----7----7----7----7----7----7----7----7----7----7----7------|
C|7----7----7----7----7----7----7----7----7----7----7----7----7----7--------|
G|--------------------------------------------------------------------------|
C|--------------------------------------------------------------------------|

D|--------------------------------------------------------------------------|
A|--11---11---10---10---10---8----10---10---10---8----10---10---10---10-----|
F|--7----7----7----7----7----7----7----7----7----7----7----7----7----7------|
C|7----7----7----7----7----7----7----7----7----7----7----7----7----7--------|
G|--------------------------------------------------------------------------|
C|--------------------------------------------------------------------------|

D|--------------------------------------------------------------------------|
A|--10---10---11---11-------------------------------------------------------|
F|--7----7----7----7--------------------------------------------------------|
C|7----7----7----7----------------------------------------------------------|
G|---------------------------12h13-13p12-10h12-12p10------------------------|
C|--------------------------------------------------------------------------|
        Guitar 1                         Guitar 2
D|------------------------------| D|----------------------------------------|
A|------------------------------| A|----------------------------------------|
F|------------------------------| F|----------------------------------------|
C|------------------------------| C|----------------------------------------|
G|12h13-13p12-10h12-12p10-------| G|8h10-10p8-7h8-8p7-----------------------|
C|------------------------------| C|----------------------------------------|


 Breakdown
 Guitar 1
D|------------------------------------------------|
A|------------------------------------------------|
F|------------------------------------------------|(x2)
C|------------------------------------------------|
G|12-13-13-12-12-13-13-12-12-13-13-12-10-12-12-10-|
C|8--8--8--8--8--8--8--8--0--0--0--0--0--0--0--0--|

D|--------------------------------------------------------------------------|
A|11-11-11-11-11-11-11-11-10-10-10-10-10-10-10-10---------------------------|
F|------------------------------------------------12-12-12-12-12-12-12-12---|
C|--------------------------------------------------------------------------|
G|--------------------------------------------------------------------------|
C|--------------------------------------------------------------------------|

D|--------------------------------------------------------------------------|
A|------------------------11-11-11-11-11-11-11-11-10-10-10-10-10-10-10-10---|
F|10-10-10-10-10-10-10-10---------------------------------------------------|
C|--------------------------------------------------------------------------|
G|--------------------------------------------------------------------------|
C|--------------------------------------------------------------------------|

D|--------------------------------------------------------------------------|
A|------------------------------------------------13-13-13-13-13-13-13-13---|
F|12-12-12-12-12-12-12-12-10-10-10-10-10-10-10-10---------------------------|
C|--------------------------------------------------------------------------|
G|--------------------------------------------------------------------------|
C|--------------------------------------------------------------------------|

D|--------------------------------------------------------------------------|
A|14-14-14-14-14-14-14-14-14-14-14-14-14-14-14-14---------------------------|
F|--------------------------------------------------------------------------|
C|--------------------------------------------------------------------------|
G|--------------------------------------------------------------------------|
C|--------------------------------------------------------------------------|
  Guitar 2
D|---------------------------------------------------------------------------|
A|---------------------------------------------------------------------------|
F|---------------------------------------------------------------------------|
C|---------------------------------------------------------------------------|
G|8-10-10-8-8-10-10-8-8-10-10-8-7-8-8-7--------------------------------------|
C|8-8--8--8-8-8--8--8-0-0--0--0-0-0-0-0--------------------------------------|

D|---------------------------------------------------------------------------|
A|---------------------------------------------------------------------------|
F|---------------------------------------------------------------------------|
C|-----------------------------------------------------------3-5-5-3-3-5-5-3-|
G|8-8-10-8-8-10-10-8-8-10-10-8-8-10-10-8-8-10-10-8-8-10-10-8-3-3-3-3-3-3-3-3-|
C|8-8-8--8-8-8--8--8-0-0--0--0-0-0--0--0-5-5--5--5-5-5--5--5-3-3-3-3-3-3-3-3-|

 Guitar 1
D|--------------------------------------------------------------------------|
A|--------------------------------------------------------------------------|
F|--------------------------------------------------------------------------|
C|----7-----8---8-----7-----8---8-----7-----8---8-----7-----10---10---------|
G|--------------------------------------------------------------------------|
C|8-8---8-8---8---7-7---7-7---7---5-5---5-5---5---5-5---5-5----5------------|
  * *   * *   *   * *   * *   *   * *   * *   *   * *   * *    *
D|--------------------------------------------------------------------------|
A|--------------------------------------------------------------------------|
F|--------------------------------------------------------------------------|
C|--------------------------------------------------------------------------|
G|----8-----8---8-----8-----8---8-----8-----8---8-------10-------10----10---|
C|0-0---0-0---0---0-0---0-0---0---0-0---0-0---0---10-10----10-10----10------|
  * *   * *   *   * *   * *   *   * *   * *   *    *  *     *  *     *
D|--------------------------------------------------------------------------|
A|--------------------------------------------------------------------------|
F|----5-----7---7-----5-----7---7-----5-----7---7-----5-----9----9----------|
C|--------------------------------------------------------------------------|
G|--------------------------------------------------------------------------|
C|8-8---8-8---8---7-7---7-7---7---5-5---5-5---5---5-5---5-5----5------------|
  * *   * *   *   * *   * *   *   * *   * *   *   * *   * *    *
D|---------------------------------------------------------------------------|
A|---------------------------------------------------------------------------|
F|----10-----10---10-----10-----10---10----10-----10--10-----9---------91012-|
C|------------------------------------------------------81012-121081012------|
G|---------------------------------------------------------------------------|
C|0-0----0-0----0----0-0----0-0----0----0-0----0-0---0-----------------------|
  * *    * *    *    * *    * *    *    * *    * *   *

Guitar 2
D|--------------------------------------------------------------------------|
A|--------------------------------------------------------------------------|
F|--------------------------------------------------------------------------|
C|----7-----8---8-----7-----8---8-----7-----8---8-----7-----10---10---------|
G|--------------------------------------------------------------------------|
C|8-8---8-8---8---7-7---7-7---7---5-5---5-5---5---5-5---5-5----5------------|
  * *   * *   *   * *   * *   *   * *   * *   *   * *   * *    *
D|--------------------------------------------------------------------------|
A|--------------------------------------------------------------------------|
F|--------------------------------------------------------------------------|
C|--------------------------------------------------------------------------|
G|----8-----8---8-----8-----8---8-----8-----8---8-------7-------7----7------|
C|0-0---0-0---0---0-0---0-0---0---0-0---0-0---0---10-10---10-10---10--------|
  * *   * *   *   * *   * *   *   * *   * *   *    *  *    *  *    *
D|--------------------------------------------------------------------------|
A|--------------------------------------------------------------------------|
F|--------------------------------------------------------------------------|
C|----7-----8---8-----7-----8---8-----7-----8---8-----7-----10---10---------|
G|--------------------------------------------------------------------------|
C|8-8---8-8---8---7-7---7-7---7---5-5---5-5---5---5-5---5-5----5------------|
  * *   * *   *   * *   * *   *   * *   * *   *   * *   * *    *
D|--------------------------------------------------------------------------|
A|--------------------------------------------------------------------------|
F|--------------------------------------------------------------------------|
C|-----------------------------------------------------------10101010-------|
G|----8-----8---8-----8-----8---8-----8-----8---8-------7----10101010-------|
C|0-0---0-0---0---0-0---0-0---0---0-0---0-0---0---10-10---10-10101010-------|
  * *   * *   *   * *   * *   *   * *   * *   *    *  *    *

 Guitar 1
D|--------------------|     D|--------------------|
A|--------------------|     A|--------------------|
F|10------9------9/12-|(X16)F|-----9---------91012|
C|---10-8---10-8------|     C|81012-121081012-----|
G|--------------------|     G|--------------------|
C|--------------------|     C|--------------------|

Guitar 2
D|---------------------------------------------------------------------------|
A|---------------------------------------------------------------------------|
F|---------------------------------------------------------------------------|
C|---------------------------------------------------------------------------|
G|8-8---8-8---7---5-5---5---5-5------------------------------------------12~-|
C|8-8---8-8---7---5-5---5---5-5---10---120-00-10---120-00-10---120-00-10-12~-|

 Guitar 1
D|--------------------------------------------------------------------------|
A|--------------------------------------------------------------------------|
F|--------------------------------------------------------------------------|
C|----7-----8---8-----7-----8---8-----7-----8---8-----7-----10---10-----12\-|
G|----------------------------------------------------------------------12\-|
C|8-8---8-8---8---7-7---7-7---7---5-5---5-5---5---5-5---5-5----5----0-0-12\-|
  * *   * *   *   * *   * *   *   * *   * *   *   * *   * *    *    * *

Guitar 2
D|--------------------------------------------------------------------------|
A|--------------------------------------------------------------------------|
F|--------------------------------------------------------------------------|
C|-------------------------------------12\----------------------------------|
G|8-8---8-8---7---5-5---5---5-5---10---12\----------------------------------|
C|8-8---8-8---7---5-5---5---5-5---10---12\----------------------------------|


| *  palm mute
| /  slide up
| \  slide down
| h  hammer-on
| p  pull-off
| ~  vibrato
| +  harmonic
| x  Mute note
============================================================================





Comments


Popular Darkest Hour tabs & chords
Eclipse 3 Bass Tabs
Demon(S) Tabs
District Divided Tabs
Full Imperial Collapse Tabs
Full Imperial CollapseSolo Tabs
Paradox With The Flies Intro Tabs
Pathos Tabs
Sound The Surrender 1 Tabs
With A Thousand Words To Say But One 1 Tabs
Your Guts My Glory Intro Tabs


Song lyrics



↑ Back to top | Tablatures and chords are parodies/interpretations of the original songs. You may use it for private study, scholarship, research or language learning purposes only
© 2014 AZChords.com Contact us | Privacy policy | DMCA | Add/correct tabs | Request tabs | Top 50 tabs