» » »

Darkest Hour, Treason In Trust Tabs (ver.1)

Artists:  A B C D E F G H I J K L M N O P Q R S T U V W X Y Z # 

Treason In Trust Tabs (ver.1)

Darkest Hour Tabs
 Rating:
4/5 (4 votes)
Treason In Trust lessons Tabs too difficult? Try these video lessons and learn fast
                Band- Darkest Hour
Song- Treason In Trust

00:02 
D|------------------------------------------------------------------------------------------------------------| 
A|------------------------------------------------------------------------------------------------------------| 
F|---*-*-*---*-*-*------------------------------------------*-*-*---*-*-*-------------------------------------| 
C|-2-2-2-2-2-2-2-2----------------------------------------3-3-3-3-3-3-3-3-------------------------------------| 
G|-2-2-2-2-2-2-2-2---2h-3p-0--3h-2p-0--2h-3p-0--3h-2p-0---3-3-3-3-3-3-3-3--8h-7p-0--7h-5p-0--5h-3p-0--3h-5p-0-| 
C|-2-2-2-2-2-2-2-2----------------------------------------3-3-3-3-3-3-3-3-------------------------------------| 

00:22 
D|------------------------------------------------------------------------------------------------------------| 
A|------------------------------------------------------------------------------------------------------------| 
F|-~--~--~--~--~--~-------------------------------------------------------------------------------------------| 
C|-2--3--7--2--3--7---6---7-----------------------------------------------------------------------------------| 
G|-2--3--5--2--3--5----------8--7-8-7---5--8------------------------------------------------------------------| 
C|-2--3-----2--3----------------------------------------------------------------------------------------------| 

00:40 
D|------------------------------------------------------------------------------------------------------------| 
A|------------------------------------------------------------------------------------------------------------| 
F|---*-*-*---*-*-*------------------------------------------*-*-*---*-*-*-------------------------------------| 
C|-2-2-2-2-2-2-2-2----------------------------------------3-3-3-3-3-3-3-3-------------------------------------| 
G|-2-2-2-2-2-2-2-2---2h-3p-0--3h-2p-0--2h-3p-0--3h-2p-0---3-3-3-3-3-3-3-3--8h-7p-0--7h-5p-0--5h-3p-0--3h-5p-0-| 
C|-2-2-2-2-2-2-2-2----------------------------------------3-3-3-3-3-3-3-3-------------------------------------| 

01:00 
D|------------------------------------------------------------------------------------------------------------| 
A|------------------------------------------------------------------------------------------------------------| 
F|-~--~--~--~--~--~-------------------------------------------------------------------------------------------| 
C|-2--3--7--2--3--7---6---7-----------------------------------------------------------------------------------| 
G|-2--3--5--2--3--5----------8--7-8-7---5--8------------------------------------------------------------------| 
C|-2--3-----2--3----------------------------------------------------------------------------------------------| 

01:17 
D|------------------------------------------------------------------------------------------------------------| 
A|------------------------------------------------------------------------------------------------------------| 
F|------------------------------------------------------------------------------------------------------------| 
C|-8--5-----------8--5---1-3-5--1-3-5----8--5----------8--7--1------------------------------------------------| 
G|-8--5--8-7-5----8--5---1-3-5--1-3-5----8--5--8-7-5---8--7--1------------------------------------------------| 
C|-8--5--5-5-5----8--5---1-3-5--1-3-5----8--5--5-5-5---8--7--1------------------------------------------------| 

01:37 
D|------------------------------------------------------------------------------------------------------------| 
A|------------------------------------------------------------------------------------------------------------| 
F|------------------------------------------------------------------------------------------------------------| 
C|------------------------------------------------------------------------------------------------------------| 
G|-0-12-12-12-8-8-8-7-7-7-------12-12-12-8-8-8-7-7-7-------10-10-10-8-8-8-7-7-7-------4-4-4-5-5-5-7-7-7-------| 
C|-0----------------------0-0-0----------------------8-8-8----------------------7-7-7-------------------------| 

01:58 
D|------------------------------------------------------------------------------------------------------------| 
A|------------------------------------------------------------------------------------------------------------| 
F|---*-*-*---*-*-*------------------------------------------*-*-*---*-*-*-------------------------------------| 
C|-2-2-2-2-2-2-2-2----------------------------------------3-3-3-3-3-3-3-3-------------------------------------| 
G|-2-2-2-2-2-2-2-2---2h-3p-0--3h-2p-0--2h-3p-0--3h-2p-0---3-3-3-3-3-3-3-3--8h-7p-0--7h-5p-0--5h-3p-0--3h-5p-0-| 
C|-2-2-2-2-2-2-2-2----------------------------------------3-3-3-3-3-3-3-3-------------------------------------| 

02:18 
D|------------------------------------------------------------------------------------------------------------| 
A|------------------------------------------------------------------------------------------------------------| 
F|------------------------------------------------------------------------------------------------------------| 
C|-1-3-5--1-3-5----8--5----------8-5----------1-3-5--1-3-5----8-5----------8--7--1----------------------------| 
G|-1-3-5--1-3-5----8--5-8-7-5----8-5-8-7-5----1-3-5--1-3-5----8-5-8-7-5----8--7--1----------------------------| 
C|-1-3-5--1-3-5----8--5-5-5-5----8-5-5-5-5----1-3-5--1-3-5----8-5-5-5-5----8--7--1----------------------------| 

02:40 
D|------------------------------------------------------------------------------------------------------------| 
A|------------------------------------------------------------------------------------------------------------| 
F|------------------------------------------------------------------------------------------------------------| 
C|------------------------------------------------------------------------------------------------------------| 
G|-0-12-12-12-8-8-8-7-7-7-------12-12-12-8-8-8-7-7-7-----10-10-10-8-8-8-7-7-7-------4-4-4-5-5-5-7-7-7---------| 
C|-0----------------------0-0-0--------------------8-8-8----------------------7-7-7---------------------------| 

03:00 
D|------------------------------------------------------------------------------------------------------------| 
A|-------------------this-riff--------------------------------------------------------------------------------| 
F|------------------played-under------------------------------------------------------------------------------| 
C|-0--0-0---5--8----------------------------------------------------------------------------------------------| 
G|-0--0-0---5--8---0-8-7-0-5-0-5-7----------------------------------------------------------------------------| 
C|-0--0-0---5--8----------------------------------------------------------------------------------------------| 

03:45 
D|------------------------------------------------------------------------------------------------------------| 
A|-------------something-like-this--------end-note------------------------------------------------------------| 
F|------------------------------------------------------------------------------------------------------------| 
C|-2--3--0---~---~---~------~------~---------2----------------------------------------------------------------| 
G|-2--3--0---11--12--8--7-8-7--5-7-8---------2----------------------------------------------------------------| 
C|-2--3--0-----------------------------------2----------------------------------------------------------------|
            
Submit corrections

comments powered by Disqus
↑ Back to top | Darkest Hour Tabs for Treason In Trust. Lyrics for acoustic guitar and electric guitar. Tablatures and chords are parodies/interpretations of the original songs. You may use it for private study, scholarship, research or language learning purposes only