>
 >
Tranquil

Tranquil Guitar Tabs

Darkest Hour - Tranquil chords, tabs, tablatures, lyrics

Guitar lessons | Add/correct | Request | Top 50 tabs Artists:  A B C D E F G H I J K L M N O P Q R S T U V W X Y Z 0-9

Tranquil Guitar Tabs – Darkest Hour

CD, Sheet music, Poster

Do you like Tranquil? Share with your friends now
Tabs






Words by John Henry
Music by Darkest Hour
Arranged by Darkest Hour
 

Gtr I (C G C F A D) - 'Untitled'
Gtr II (C G C F A D) - 'Untitled'
Gtr III (C G C F A D) - 'Untitled'


   Verse
    N.C.
   4/4
    Gtrs I, II
||--------------------------------------------|
||o-------------------------------------------|
||--------------------------------------------|
||--------------------------------------------|
||o-12---5---7---8S13---12---10---12-10h12p10-|
||-----0---0---0------0----0----0-------------|


|------------------------------------------|
|------------------------------------------|
|------------------------------------------|
|------------------------------------------|
|-12---8---10---12-13----12----10----------|
|----8---8----8-------10----10----10-10-11-|


                                              Bb5        C5
                                             15/16
|-------------------------------------------|---------------------------------||
|-------------------------------------------|--------------------------------o||
|-------------------------------------------|---------------------------------||
|-------------------------------------------|----------------------10-8-7-----||
|-12---5---7---8S13---12---10---12-10h12p10-|-8-8-8--8-8-10-10-10---------10-o||
|----0---0---0------0----0----0-------------|-8-8-8--8-8-10-10-10-------------||


 Verse
  N.C.
 4/4
|---------------------------------|---------------------------------------|
|---------------------------------|---------------------------------------|
|---------------------------------|---------------------------------------|
|---------------------------------|-------------------------7h8p7---------|
|-5-------------5-4-------------4S|=8---------------7h8p7------------8h10-|
|---0-0-0-0-0-0-----0-0-0-0-0-0---|---0-0-0-0-0-0-0-------8-------10------|


  N.C.                                              Bb5C5 C#5
|---------------------------------|--------------------------|
|---------------------------------|--------------------------|
|---------------------------------|--------------------------|
|---------------------------------|--------------------------|
|-5-------------5-4-------------4S|=8---------------8--10-11-|
|---0-0-0-0-0-0-----0-0-0-0-0-0---|---0-0-0-0-0-0-0-8--10-11-|


   Chorus
    D5                                        C5     N.C.
    Gtr II
||--------------|-------------|-------------|------------------|
||o-------------|-------------|-------------|------------------|
||--------------|-------------|-------------|------------------|
||--7---7---7-7-|-7---7---7-7-|-7---7---7-7-|-5---5------------|
||o-5---5---5-5-|-5---5---5-5-|-5---5---5-5-|-3---3---7--7h=8--|
||--------------|-------------|-------------|------------------|
|
|   Gtr III
||--------------|-------------|-------------|------------------|
||o-------------|-------------|-------------|------------------|
||--------------|-------------|-------------|------------------|
||--------------|-------------|-------------|------------------|
||o-8---8---8-8-|-8---8---8-8p|=7---7---7-7-|-7---7--10-10h12--|
||--------------|-------------|-------------|------------------|


  Bb5       A5  G5       F5E5  D5           N.C.
|-------------|--------------|------------|------------------||
|-------------|--------------|------------|-----------------o||
|-------------|--------------|------------|------------------||
|-3---3---3-2-|--------------|------------|---7-7-5---7-7-5--||
|-1---1---1-0-|-5---5----3-2-|-0---0---0--|-----------------o||
|-------------|-5---5----3-2-|-0---0---0--|-0-------5--------||
|
|-------------|--------------|------------|------------------||
|-------------|--------------|------------|-----------------o||
|-------------|--------------|------------|------------------||
|-------------|--------------|------------|------------------||
|-5---5---5-5-|-5---5--3-3h5-|------------|---8-8-7---8-8-7-o||
|-------------|--------------|-0---0---0--|-0-------5--------||


 Verse
  D5          D5  C#5         C#5   F5            F5   Bb5         C5
|---------------------------------|--------------------------------------------|
|---------------------------------|--------------------------------------------|
|---------------------------------|--------------------------------------------|
|-7-----------7---6-----------6S==|=10------------10---------------------------|
|-5-----------5---4-----------4S==|==8-------------8----8----------10----------|
|---------0-0-------------0-0-----|-----------0-0-------8----------10----------|
|
|---------------------------------|--------------------------------------------|
|---------------------------------|--------------------------------------------|
|-----------3---------------2-----|-------------6------------------------------|
|-7p3---3-7---7p3-6p2---2-6---6p2-|-10p6---6-10---10p6----12-15p12----14-17p14-|
|-----5---------------4-----------|------8-------------13----------15----------|
|---------------------------------|--------------------------------------------|


  D5          D5  C#5         C#5   F5            F5   Bb5C5 C#5
|---------------------------------|-----------------------------|
|---------------------------------|-----------------------------|
|---------------------------------|-----------------------------|
|-7-----------7---6-----------6S==|=10------------10------------|
|-5-----------5---4-----------4S==|==8-------------8---8--10-11-|
|---------0-0-------------0-0-----|-----------0-0------8--10-11-|
|
|---------------------------------|-----------------------------|
|---------------------------------|-----------------------------|
|-----------3---------------2-----|-------------6---------------|
|-7p3---3-7---7p3-6p2---2-6---6p2-|-10p6---6-10---10p6----------|
|-----5---------------4-----------|------8-------------8--10-11-|
|---------------------------------|--------------------8--10-11-|


 Verse
  N.C.
  Gtr I
|-------------------------------------------|
|-------------------------------------------|
|-------------------------------------------|
|-------------------------------------------|
|-12---5---7---8S13---12---10---12-10h12p10-|
|----0---0---0------0----0----0-------------|


|------------------------------------------|
|------------------------------------------|
|------------------------------------------|
|------------------------------------------|
|-12---8---10---12-13----12----10----------|
|----8---8----8-------10----10----10-10-11-|


                                                Bb5        C5        N.C.
                                               15/16
  Gtr II
|---------------------------------------------|--------------------------------|
|---------------------------------------------|--------------------------------|
|---------------------------------------------|--------------------------------|
|---------------------------------------------|----------------------10-8-7----|
|-12---5----7----8S13---12---10---12-10h12p10-|-8-8-8--8-8-10-10-10---------10-|
|----0---0----0-------0----0----0-------------|-8-8-8--8-8-10-10-10------------|
|
| Gtr III
|---------------------------------------------|--------------------------------|
|---------------------------------------------|--------------------------------|
|---------------------------------------------|--------------------------------|
|------------------12---10----8---10--8h10p=8-|-----------------------7-5-3----|
|--8---8---10---12----------------------------|-5-5-5--5-5--7--7--7----------7-|
|----0---0----0-------0----0----0-------------|--------------------------------|


  N.C.
 4/4
|---------------------------------------------|
|---------------------------------------------|
|---------------------------------------------|
|---------------------------------------------|
|-12---5----7----8S13---12---10---12-10h12p10-|
|----0---0----0-------0----0----0-------------|
|
|---------------------------------------------|
|---------------------------------------------|
|---------------------------------------------|
|------------------12---10----8---10--8h10p=8-|
|--8---8---10---12----------------------------|
|----0---0----0-------0----0----0-------------|


|-------------------------------------------|
|-------------------------------------------|
|-------------------------------------------|
|-------------------------------------------|
|-12---8---10---12-13----12----10-----------|
|----8---8----8-------10----10----10-10-11--|
|
|-------------------------------------------|
|-------------------------------------------|
|-------------------------------------------|
|------------------12----10-----8--------7--|
|--8---8---10---12--------------------------|
|----8---8----8-------10----10----10-10-----|


  N.C.
|---------------------------------------------|
|---------------------------------------------|
|---------------------------------------------|
|---------------------------------------------|
|-12---5----7----8S13---12---10---12-10h12p10-|
|----0---0----0-------0----0----0-------------|
|
|---------------------------------------------|
|---------------------------------------------|
|---------------------------------------------|
|------------------12---10----8---10--8h10p=8-|
|--8---8---10---12----------------------------|
|----0---0----0-------0----0----0-------------|


|----------------------------------------|
|----------------------------------------|
|----------------------------------------|
|-12---10----8------10-----8----7--------|
|------------------------------------8S7-|
|----8----8----8h10----10----10---10-----|
|
|----------------------------------------|
|----------------------------------------|
|----------------------------------------|
|--8----7------------7-------------------|
|-----------10------------10----8----5S4-|
|----8----8----8h10----10----10---10-----|


   Bridge
    Bb5
    T   T   T   T   T   T    T    T     T   T   T   T     T T    T    T
||------------------------------------|------------------------------------|
||o-----------------------------------|------------------------------------|
||--7-3-7-3-7-3-7-3-9-3-9-3-10-3-10-3-|-7-3-7-3-7-3-7-3-9-3-9-3-10-3-10-3--|
||------------------------------------|------------------------------------|
||o-----------------------------------|------------------------------------|
||------------------------------------|------------------------------------|
|
||------------------------------------|------------------------------------|
||o-----------------------------------|------------------------------------|
||--3---------------------------------|-3----------------------------------|
||--3---------------------------------|-3----------------------------------|
||o-1---------------------------------|-1----------------------------------|
||------------------------------------|------------------------------------|


  D5                                                  A5       C5
  T   T   T   T   T   T    T    T     T   T   T   T   T    T    T    T
|-----------------------------------|-------------------------------------||
|-----------------------------------|------------------------------------o||
|-7-2-7-2-7-2-7-2-9-2-9-2-10-2-10-2-|-7-2-7-2-7-2-9-2-9-2-12-5-12-5-10-5--||
|-----------------------------------|-------------------------------------||
|-----------------------------------|------------------------------------o||
|-----------------------------------|-------------------------------------||
|
|-----------------------------------|-------------------------------------||
|-----------------------------------|------------------------------------o||
|-----------------------------------|-------------------------------------||
|-0---------------------------------|-0---------------2---------5---------||
|-0---------------------------------|-0---------------0---------3--------o||
|-0---------------------------------|-0-----------------------------------||


 Guitar Solo
  Bb5                                              Bb5
  Gtr II
|------------------------------------------------|--------------------|
|------------------------------------------------|--------------------|
|------------------------------------------------|--------------------|
|------------------------------------------------|--------------------|
|------------------------------------------------|--------------------|
|------------------------------------------------|--------------------|
|
| Gtr III
|----------------13h17p13------------------------|--------------------|
|-------------15----------15---------------------|------------------6-|
|-------10S14----------------14S10----------9-10-|-[9]----------------|
|----12----------------------------12----12------|------8-7-(7)-5S7---|
|-12----------------------------------12---------|--------------------|
|------------------------------------------------|--------------------|
|
| Gtr I
|------------------------------------------------|--------------------|
|------------------------------------------------|--------------------|
|--3---------------------------------------------|--3-----------------|
|--3---------------------------------------------|--3-----------------|
|--1---------------------------------------------|--1-----------------|
|------------------------------------------------|--------------------|


  D5                                     A5  C5
|------------------------|------------------------------|
|---------------------10-|-8--(8)-(8)b10r===============|
|------------------------|---------------10--(10)-(10)--|
|------------------------|------------------------------|
|------------------------|------------------------------|
|------------------------|------------------------------|
|
|------------------------|------------------------------|
|-5--(5)-(5)b7r========6-|-5--(5)-(5)b7r================|
|--------------7--(7)----|----------------7---(7)--(7)--|
|------------------------|------------------------------|
|------------------------|------------------------------|
|------------------------|------------------------------|
|
|------------------------|------------------------------|
|------------------------|------------------------------|
|------------------------|------------------------------|
|-0----------------------|-0--------------2----5--------|
|-0----------------------|-0--------------0----3--------|
|-0----------------------|-0----------------------------|


  Bb5
|-17-15----15-------------------------------------|
|-------18----18-17-15----17-15----15-------------|
|----------------------17-------17----17-15-14----|
|----------------------------------------------17-|
|-------------------------------------------------|
|-------------------------------------------------|
|
|-13-12----12-------------------------------------|
|-------15----15-13-11----13-11----11-------------|
|----------------------14-------14----14-12-10----|
|----------------------------------------------14-|
|-------------------------------------------------|
|-------------------------------------------------|
|
|-------------------------------------------------|
|-------------------------------------------------|
|--3----------------------------------------------|
|--3----------------------------------------------|
|--1----------------------------------------------|
|-------------------------------------------------|


|----------------------------------------------------------------15-17-18-|
|----------------------------------------------15-17-18-15-17-18----------|
|----------------------------14-15-17-14-15-17----------------------------|
|----------14-15-17-14-15-17----------------------------------------------|
|-13-15-17----------------------------------------------------------------|
|-------------------------------------------------------------------------|
|
|----------------------------------------------------------------12-13-15-|
|----------------------------------------------11-13-15-11-13-15----------|
|----------------------------10-12-14-10-12-14----------------------------|
|----------10-12-14-10-12-14----------------------------------------------|
|-10-12-13----------------------------------------------------------------|
|-------------------------------------------------------------------------|
|
|-------------------------------------------------------------------------|
|-------------------------------------------------------------------------|
|--3----------------------------------------------------------------------|
|--3----------------------------------------------------------------------|
|--1----------------------------------------------------------------------|
|-------------------------------------------------------------------------|


  D5
|-17p13----------13-17S22p17----------------------|
|-------15----15-------------18----17-18p17-15h17p|
|----------14-------------------19----------------|
|-------------------------------------------------|
|-------------------------------------------------|
|-------------------------------------------------|
|
|-17p13----------13-17S22p17-------15-17p15-13h15p|
|-------15----15-------------18-------------------|
|----------14-------------------19----------------|
|-------------------------------------------------|
|-------------------------------------------------|
|-------------------------------------------------|
|
|-------------------------------------------------|
|-------------------------------------------------|
|-------------------------------------------------|
|--0----------------------------------------------|
|--0----------------------------------------------|
|--0----------------------------------------------|


                          A5          C5
|------------------------------------------|
|-15-13h15p13-11h13p11-10h11p10-8-(8)-(8)--|
|------------------------------------------|
|------------------------------------------|
|------------------------------------------|
|------------------------------------------|
|
|-13-12h13p12-10h12p10--8h10p=8-6-(6)-(6)--|
|------------------------------------------|
|------------------------------------------|
|------------------------------------------|
|------------------------------------------|
|------------------------------------------|
|
|------------------------------------------|
|------------------------------------------|
|------------------------------------------|
|--0-----------------------2-----------5---|
|--0-----------------------0-----------3---|
|--0---------------------------------------|


    Bb5
     T    T    T    T    T    T    T    T
||------------------------------------------|
||o-----------------------------------------|
||---7-3--7-3--7-3--7-3--9-3--9-3-10-3-10-3-|
||------------------------------------------|
||o-----------------------------------------|
||------------------------------------------|
|
|    T    T    T    T    T    T    T    T
||------------------------------------------|
||o-----------------------------------------|
||--10-3-10-3-10-3-10-3-12-3-12-3-14-3-14-3-|
||------------------------------------------|
||o-----------------------------------------|
||------------------------------------------|
|
||------------------------------------------|
||o-----------------------------------------|
||------------------------------------------|
||---3-3--3---------3-3--3-3--3----3-3--3-3-|
||o--1-1--1---------1-1--1-1--1----1-1--1-1-|
||------------------------------------------|


                      N.C.
   T    T    T    T      T  T    T    T
|------------------------------------------|
|------------------------------------------|
|--7-3--7-3--7-3--7-3--9-3--9-3-10-3-10-3--|
|------------------------------------------|
|------------------------------------------|
|------------------------------------------|
|
|  T    T    T    T      T  T    T    T
|------------------------------------------|
|------------------------------------------|
|-10-3-10-3-10-3-10-3-12-3-12-3-14-3-14-3--|
|------------------------------------------|
|------------------------------------------|
|------------------------------------------|
|
|------------------------------------------|
|------------------------------------------|
|------------------------------------------|
|--3-3--3---------3-3--3-2--0----0---------|
|--1-1--1---------1-1---------3----3--1-0--|
|------------------------------------------|


  D5
   T    T    T    T    T    T    T    T
|-----------------------------------------|
|-----------------------------------------|
|--7-2--7-2--7-2--7-2--9-2--9-2-10-2-10-2-|
|-----------------------------------------|
|-----------------------------------------|
|-----------------------------------------|
|
|  T    T    T    T    T    T    T    T
|-----------------------------------------|
|-----------------------------------------|
|-10-2-10-2-10-2-10-2-12-2-12-2-14-2-14-2-|
|-----------------------------------------|
|-----------------------------------------|
|-----------------------------------------|
|
|-----------------------------------------|
|-----------------------------------------|
|-----------------------------------------|
|-----------------------------------------|
|--0-0--0---------0-0--0-0--0----0-0--0-0-|
|--0-0--0---------0-0--0-0--0----0-0--0-0-|


                      A5        C5
   T    T    T    T    T    T    T    T
|------------------------------------------||
|-----------------------------------------o||
|--7-2--7-2--7-2--9-2--9-2-12-5-12-5-10-5--||
|------------------------------------------||
|-----------------------------------------o||
|------------------------------------------||
|
|  T    T    T    T    T    T    T    T
|------------------------------------------||
|-----------------------------------------o||
|-10-2-10-2-10-2-12-2-12-2-15-5-15-5-14-5--||
|------------------------------------------||
|-----------------------------------------o||
|------------------------------------------||
|
|------------------------------------------||
|-----------------------------------------o||
|------------------------------------------||
|----------------------2---------5---------||
|--0-0--0---------0-0--0---------3--------o||
|--0-0--0---------0-0----------------------||


    Bb5
||----------------------------------------|
||o--3------3------3----5------6------6---|
||-----3-3----3-3----3----3-3----3-3----3-|
||----------------------------------------|
||o---------------------------------------|
||----------------------------------------|
|
||----------------------------------------|
||o---------------------------------------|
||--10-----10-----10---12-----14-----14---|
||-----8-8----8-8----8----8-8----8-8----8-|
||o---------------------------------------|
||----------------------------------------|
|
||----------------------------------------|
||o---------------------------------------|
||----------------------------------------|
||---3-3-3---------3-3--3-3-3----3-3--3-3-|
||o--1-1-1---------1-1--1-1-1----1-1--1-1-|
||----------------------------------------|


|---------------------8p=6p==5-----------6p5p==3------------|
|--3------3------3--------------8p=6p=5-----------6p5p==3---|
|----3-3----3-3----3----------------------------------------|
|-----------------------------------------------------------|
|-----------------------------------------------------------|
|-----------------------------------------------------------|
|
|--------------------12p10p==8----------10p8p==6------------|
|------------------------------11p10p=8----------10p8p==6---|
|-10-----10-----10------------------------------------------|
|----8-8----8-8----8----------------------------------------|
|-----------------------------------------------------------|
|-----------------------------------------------------------|
|
|-----------------------------------------------------------|
|-----------------------------------------------------------|
|-----------------------------------------------------------|
|--3-3-3---------3-3--3----3----3--------3---3----3---3-----|
|--1-1-1---------1-1--1----1----1--------1---1----1---1-----|
|-----------------------------------------------------------|


  D5
|--------------------------------------|
|--3------3------3---5------6------6---|
|----2-2----2-2----2---2-2----2-2----2-|
|--------------------------------------|
|--------------------------------------|
|--------------------------------------|
|
|--------------------------------------|
|--------------------8-----10-----10---|
|-10-----10-----10---------------------|
|----7-7----7-7----7---7-7----7-7----7-|
|--------------------------------------|
|--------------------------------------|
|
|--------------------------------------|
|--------------------------------------|
|--------------------------------------|
|--------------------------------------|
|--0-0-0---------0-0-0-0-0----0-0--0-0-|
|--0-0-0---------0-0-0-0-0----0-0--0-0-|


 1.                                         2.
                     A5        C5            D5                 G5 F5E5
|-----------------------------------------||----------------------------|
|--3------3------3----6p5--------------5-o||--3------3------3-----------|
|----2-2----2-2----2-------7p5----5h=7----||----2-2----2-2----2---------|
|-------------------------------7---------||----------------------------|
|----------------------------------------o||--------------------5--3-2--|
|-----------------------------------------||--------------------5--3-2--|
|
|-----------------------------------------||----------------------------|
|--------------------10p8--------------8-o||----------------------------|
|-10-----10-----10--------10p9----9h10----||-10-----10-----10-----------|
|----7-7----7-7----7-----------10---------||----7-7----7-7----7---------|
|----------------------------------------o||--------------------5--3-2--|
|-----------------------------------------||--------------------5--3-2--|
|
|-----------------------------------------||----------------------------|
|----------------------------------------o||----------------------------|
|-----------------------------------------||----------------------------|
|---------------------2---------5---------||----------------------------|
|--0-0-0---------0-0--0---------3--------o||--0-0-0---------0-0-5--3-2--|
|--0-0-0---------0-0----------------------||--0-0-0---------0-0-5--3-2--|


 Breakdown
  D5
  Gtr II
|-------------------------------------------|
|-------------------------------------------|
|-------------------------------------------|
|-------------------------------------------|
|-12---5---7---8S13---12---10---12-10h12p10-|
|----0---0---0------0----0----0-------------|
|
| Gtr III
|-------------------------------------------|
|-------------------------------------------|
|-------------------------------------------|
|-------------------------------------------|
|--0----------------------------------------|
|--0----------------------------------------|


                                          C#5
|--------------------------------------------|
|--------------------------------------------|
|--------------------------------------------|
|--------------------------------------------|
|-12----8---10---12-13----12----10--------11-|
|-----8---8----8-------10----10----10--10-11-|
|
|--------------------------------------------|
|--------------------------------------------|
|--------------------------------------------|
|--------------------------------------------|
|-(0)------------------------------(0)----11-|
|-(0)------------------------------(0)----11-|


   Verse
    N.C.
    Gtrs II, III
||--------------------------------------------|
||o-------------------------------------------|
||--------------------------------------------|
||--------------------------------------------|
||o-12---5---7---8S13---12---10---12-10h12p10-|
||-----0---0---0------0----0----0-------------|


|-------------------------------------------|
|-------------------------------------------|
|-------------------------------------------|
|-------------------------------------------|
|-12---8---10---12-13----12----10-----------|
|----8---8----8-------10----10----10-10-11--|


  N.C.
  Gtr II
|---------------------------------------------|
|---------------------------------------------|
|---------------------------------------------|
|---------------------------------------------|
|-12---5----7----8S13---12---10---12-10h12p10-|
|----0---0----0-------0----0----0-------------|
|
| Gtr III
|---------------------------------------------|
|---------------------------------------------|
|---------------------------------------------|
|------------------12---10----8---10--8h10p=8-|
|--8---8---10---12----------------------------|
|----0---0----0-------0----0----0-------------|


  Bb5        C5        N.C.
 15/16
|---------------------------------||
|--------------------------------o||
|---------------------------------||
|----------------------10-8-7-----||
|-8-8-8--8-8-10-10-10---------10-o||
|-8-8-8--8-8-10-10-10-------------||
|
|---------------------------------||
|--------------------------------o||
|---------------------------------||
|-----------------------7-5-3-----||
|-5-5-5--5-5--7--7--7----------7-o||
|---------------------------------||


   Verse
    D5          D5  C#5         C#5   F5            F5   Bb5         C5
   4/4
||----------------------------------|---------------------------------------------||
||o---------------------------------|--------------------------------------------o||
||----------------------------------|---------------------------------------------||
||--7-----------7---6-----------6S==|=10------------10----------------------------||
||o-5-----------5---4-----------4S==|==8-------------8----8----------10----------o||
||----------0-0-------------0-0-----|-----------0-0-------8----------10-----------||
|
||----------------------------------|---------------------------------------------||
||o---------------------------------|--------------------------------------------o||
||------------3---------------2-----|-------------6-------------------------------||
||--7p3---3-7---7p3-6p2---2-6---6p2-|-10p6---6-10---10p6----12-15p12----14-17p14--||
||o-----5---------------4-----------|------8-------------13----------15----------o||
||----------------------------------|---------------------------------------------||


      D5      D5 C#5    C#5 F5      F5 Bb5C5
|-||----------------------|-----------------------||
|-||o---------------------|----------------------o||
|-||----------------------|-----------------------||
|-||---7-------7-6------6S|=10------10------------||
|-||o--5-------5-4------4S|==8-------8-8--10-----o||
|-||------0-0-------0-0---|-----0-0----8--10------||
|
|-||----------------------|-----------------------||
|-||o---------------------|----------------------o||
|-||--10------10S9------9S|=14------14-7---9S10---||
|-||----------------------|-----------------------||
|-||o--8-------8S7------7S|=12------12-5---7S=8--o||
|-||------0-0-------0-0---|-----0-0---------------||


   Out-Chorus
    N.C.
    Gtr II
||--------------|--------------|-----------------|-----------------|
||o-------------|--------------|-----------------|-----------------|
||--------------|--------------|-----------------|-----------------|
||--------------|--------------|-----------------|-----------------|
||o-5---5---5-5-|-5---5---5S10-|-10---10---10-10-|-10---10---10S===|
||--------------|--------------|-----------------|-----------------|
|
|   Gtr III
||--------------|--------------|-----------------|-----------------|
||o-------------|--------------|-----------------|-----------------|
||--------------|--------------|-----------------|-----------------|
||--------------|--------------|-----------------|-----------------|
||o-8---8---8-8-|-8---8---8p=7-|--7----7----7--7-|--7----7----7----|
||--------------|--------------|-----------------|-----------------|


  N.C.
|-----------------|-------------------|---------------|--------------||
|-----------------|-------------------|---------------|-------------o||
|-----------------|-------------------|---------------|--------------||
|-----------------|-------------------|---------------|--------------||
|-13---13---13-13-|-13---13--13-13p12-|-12---12---12--|-8---8S=7-7--o||
|-----------------|-------------------|---------------|--------------||
|
|-----------------|-------------------|---------------|--------------||
|-----------------|-------------------|---------------|-------------o||
|-----------------|-------------------|---------------|--------------||
|-----------------|-------------------|---------------|--------------||
|--5----5----5--5-|--5----5---3--3h=5-|---------------|-5-----------o||
|-----------------|-------------------|--0----0----0--|--------------||


   Ending Rhythm
    D5                          G5                C5     N.C.
||--------------|-------------|-----------------|------------------|
||o-------------|-------------|-----------------|------------------|
||--------------|-------------|-----------------|------------------|
||--------------|-------------|-----------------|------------------|
||o-8---8---8-8-|-8---8---8-8p|==7----7----7--7-|-7---7--10-10h12--|
||--------------|-------------|-----------------|------------------|
|
||--------------|-------------|-----------------|------------------|
||o-------------|-------------|-----------------|------------------|
||--------------|-------------|-12---12---12-12-|------------------|
||--7---7---7-7-|-7---7---7-7-|-12---12---12-12S|=5---5------------|
||o-5---5---5-5-|-5---5---5-5-|-10---10---10-10S|=3---3---7--7h=8--|
||--------------|-------------|-----------------|------------------|


  Bb5       A5  G5       F5E5  D5           N.C.
|-------------|--------------|------------|------------------||
|-------------|--------------|------------|-----------------o||
|-------------|--------------|------------|------------------||
|-------------|--------------|------------|------------------||
|-5---5---5-5-|-5---5--3-3h5-|------------|---8-8-7---8-8-7-o||
|-------------|--------------|-0---0---0--|-0-------5--------||
|
|-------------|--------------|------------|------------------||
|-------------|--------------|------------|-----------------o||
|-------------|--------------|------------|------------------||
|-3---3---3-2-|--------------|------------|---7-7-5---7-7-5--||
|-1---1---1-0-|-5---5----3-2-|-0---0---0--|-----------------o||
|-------------|-5---5----3-2-|-0---0---0--|-0-------5--------||


   Ending Harmony 1
    D5
    Gtr II
||------------------------|-----------------------|
||o-----------------------|-----------------------|
||------------------------|-----------------------|
||------------------------|-----------------------|
||o-8--------8-------8--8-|-8--------8-------8--8p|
||------------------------|-----------------------|
|
|   Gtr I
||------------------------|-----------------------|
||o-----------------------|-----------------------|
||------------------------|-----------------------|
||--7--------7-------7--7-|-7--------7-------7--7-|
||o-5--------5-------5--5-|-5--------5-------5--5-|
||------------------------|-----------------------|
|
|   Gtr III
||------------------------|-----------------------|
||o-----------------------|-----------------------|
||------------------------|-----------------------|
||--0-15-14-15-0-15-14-15-|-0-15-14-15-0-15-14-15-|
||o-----------------------|-----------------------|
||------------------------|-----------------------|


  G5                       C5           N.C.
|------------------------|------------------------|
|------------------------|------------------------|
|------------------------|------------------------|
|------------------------|------------------------|
|--7--------7-------7--7-|-7--------7---10-10h12--|
|------------------------|------------------------|
|
|------------------------|------------------------|
|------------------------|------------------------|
|------------------------|------------------------|
|-12-------12------12-12S|=5--------5-------------|
|-10-------10------10-10S|=3--------3----7--7h=8--|
|------------------------|------------------------|
|
|------------------------|------------------------|
|------------------------|------------------------|
|------------------------|------------------------|
|--0-14-12-14-0-14-12-14-|-0-14-12-14-0-14-12-14--|
|------------------------|------------------------|
|------------------------|------------------------|


  Bb5                A5   G5              F5 E5
|-----------------------|-----------------------|
|-----------------------|-----------------------|
|-----------------------|-----------------------|
|-----------------------|-----------------------|
|-5--------5-------5--5-|-5--------5----3--3h=5-|
|-----------------------|-----------------------|
|
|-----------------------|-----------------------|
|-----------------------|-----------------------|
|-----------------------|-----------------------|
|-3--------3-------3--2-|-----------------------|
|-1--------1-------1--0-|-5--------5-------3--2-|
|-----------------------|-5--------5-------3--2-|
|
|-----------------------|-----------------------|
|-----------------------|-----------------------|
|-----------------------|-----------------------|
|-0-17-15-17-0-17-15-17-|-0-17-15-17-0-17-15-17-|
|-----------------------|-----------------------|
|-----------------------|-----------------------|


 1.
  D5                      N.C.
|-----------------------|--------------------------||
|-----------------------|-------------------------o||
|-----------------------|--------------------------||
|-----------------------|--------------------------||
|-----------------------|-----8--8--7-----8--8--7-o||
|-0--------0-------0----|--0-----------5-----------||
|
|-----------------------|--------------------------||
|-----------------------|-------------------------o||
|-----------------------|--------------------------||
|-----------------------|-----7--7--5-----7--7--5--||
|-0--------0-------0----|-------------------------o||
|-0--------0-------0----|--0-----------5-----------||
|
|-----------------------|--------------------------||
|-----------------------|-------------------------o||
|-----------------------|--------------------------||
|-0-15-14-15-0-15-14-15-|-14-15-14-12-14-12-10-12--||
|-----------------------|-------------------------o||
|-----------------------|--------------------------||


  2.
  D5                      N.C.
|-----------------------|-------------------------|
|-----------------------|-------------------------|
|-----------------------|-------------------------|
|-----------------------|-------------------------|
|-----------------------|-----8--8--7-----8--8--7-|
|-0--------0-------0----|--0-----------5----------|
|
|-----------------------|-------------------------|
|-----------------------|-------------------------|
|-----------------------|-------------------------|
|-----------------------|-----7--7--5-----7--7--5-|
|-0--------0-------0----|-------------------------|
|-0--------0-------0----|--0-----------5----------|
|
|-----------------------|-------------------------|
|-----------------------|-------------------------|
|-----------------------|-------------------------|
|-0-19-17-19-0-19-17-19-|-14-15-14-12-14-12-10-12-|
|-----------------------|-------------------------|
|-----------------------|-------------------------|


   Ending Harmony 2
    D5
    Gtr II
||------------------------|-----------------------|
||o-----------------------|-----------------------|
||------------------------|-----------------------|
||------------------------|-----------------------|
||o-8--------8-------8--8-|-8--------8-------8--8p|
||------------------------|-----------------------|
|
|   Gtr I
||------------------------|-----------------------|
||o-----------------------|-----------------------|
||------------------------|-----------------------|
||--7--------7-------7--7-|-7--------7-------7--7-|
||o-5--------5-------5--5-|-5--------5-------5--5-|
||------------------------|-----------------------|
|
|   Gtr III
||------------------------|-----------------------|
||o-----------------------|-----------------------|
||------------------------|-----------------------|
||--0-19-17-19-0-19-17-19-|-0-19-17-19-0-19-17-19-|
||o-----------------------|-----------------------|
||------------------------|-----------------------|


  G5                       C5           N.C.
|------------------------|------------------------|
|------------------------|------------------------|
|------------------------|------------------------|
|------------------------|------------------------|
|--7--------7-------7--7-|-7--------7---10-10h12--|
|------------------------|------------------------|
|
|------------------------|------------------------|
|------------------------|------------------------|
|------------------------|------------------------|
|-12-------12------12-12S|=5--------5-------------|
|-10-------10------10-10S|=3--------3----7--7h=8--|
|------------------------|------------------------|
|
|------------------------|------------------------|
|------------------------|------------------------|
|------------------------|------------------------|
|--0-17-15-17-0-17-15-17-|-0-17-15-17-0-17-15-17--|
|------------------------|------------------------|
|------------------------|------------------------|


  Bb5                A5   G5              F5 E5
|-----------------------|-----------------------|
|-----------------------|-----------------------|
|-----------------------|-----------------------|
|-----------------------|-----------------------|
|-5--------5-------5--5-|-5--------5----3--3h=5-|
|-----------------------|-----------------------|
|
|-----------------------|-----------------------|
|-----------------------|-----------------------|
|-----------------------|-----------------------|
|-3--------3-------3--2-|-----------------------|
|-1--------1-------1--0-|-5--------5-------3--2-|
|-----------------------|-5--------5-------3--2-|
|
|-----------------------|-----------------------|
|-----------------------|-----------------------|
|-----------------------|-----------------------|
|-0-20-19-20-0-20-19-20-|-0-20-19-20-0-20-19-20-|
|-----------------------|-----------------------|
|-----------------------|-----------------------|


 1.
  D5                      N.C.
|-----------------------|--------------------------||
|-----------------------|-------------------------o||
|-----------------------|--------------------------||
|-----------------------|--------------------------||
|-----------------------|-----8--8--7-----8--8--7-o||
|-0--------0-------0----|--0-----------5-----------||
|
|-----------------------|--------------------------||
|-----------------------|-------------------------o||
|-----------------------|--------------------------||
|-----------------------|-----7--7--5-----7--7--5--||
|-0--------0-------0----|-------------------------o||
|-0--------0-------0----|--0-----------5-----------||
|
|-----------------------|--------------------------||
|-----------------------|-------------------------o||
|-----------------------|--------------------------||
|-0-19-17-19-0-19-17-19-|-17-19-17-15-17-15-14-15--||
|-----------------------|-------------------------o||
|-----------------------|--------------------------||


  2.
  D5                      N.C.
|-----------------------|-------------------------|
|-----------------------|-------------------------|
|-----------------------|-------------------------|
|-----------------------|-------------------------|
|-----------------------|-----8--8--7-----8--8--7-|
|-0--------0-------0----|--0-----------5----------|
|
|-----------------------|-------------------------|
|-----------------------|-------------------------|
|-----------------------|-------------------------|
|-----------------------|-----7--7--5-----7--7--5-|
|-0--------0-------0----|-------------------------|
|-0--------0-------0----|--0-----------5----------|
|
|-----------------------|-------------------------|
|-----------------------|-------------------------|
|-----------------------|-------------------------|
|-0-22-20-22-0-22-20-22-|-17-19-17-15-17-15-14-15-|
|-----------------------|-------------------------|
|-----------------------|-------------------------|


   Ending Harmony 3
    D5
    Gtr II
||---------------------------|-----------------------------|
||o--------------------------|-----------------------------|
||---------------------------|-----------------------------|
||---------------------------|-----------------------------|
||o-8--------8----------8--8-|---8---------8----------8--8p|
||---------------------------|-----------------------------|
|
|   Gtr I
||---------------------------|-----------------------------|
||o--------------------------|-----------------------------|
||---------------------------|-----------------------------|
||--7--------7----------7--7-|---7---------7----------7--7-|
||o-5--------5----------5--5-|---5---------5----------5--5-|
||---------------------------|-----------------------------|
|
|   Gtr III
||---------------------------|-----------------------------|
||o---18-17-18-(18)-18-17-18-|-(18)-18-17-18-(18)-18-17-18-|
||---------------------------|-----------------------------|
||---------------------------|-----------------------------|
||o--------------------------|-----------------------------|
||---------------------------|-----------------------------|


  G5                            C5                 N.C.
|-----------------------------|------------------------------|
|-----------------------------|------------------------------|
|-----------------------------|------------------------------|
|-----------------------------|------------------------------|
|---7---------7----------7--7-|---7---------7------10-10h12--|
|-----------------------------|------------------------------|
|
|-----------------------------|------------------------------|
|-----------------------------|------------------------------|
|-----------------------------|------------------------------|
|--12--------12---------12-12S|===5---------5----------------|
|--10--------10---------10-10S|===3---------3-------7--7h=8--|
|-----------------------------|------------------------------|
|
|-----------------------------|------------------------------|
|-(18)-17-15-17-(17)-17-15-17-|-(17)-17-15-17-(17)-17-15-17--|
|-----------------------------|------------------------------|
|-----------------------------|------------------------------|
|-----------------------------|------------------------------|
|-----------------------------|------------------------------|


  Bb5                      A5   G5                    F5 E5
|-----------------------------|-----------------------------|
|-----------------------------|-----------------------------|
|-----------------------------|-----------------------------|
|-----------------------------|-----------------------------|
|---5---------5----------5--5-|---5---------5-------3--3h=5-|
|-----------------------------|-----------------------------|
|
|-----------------------------|-----------------------------|
|-----------------------------|-----------------------------|
|-----------------------------|-----------------------------|
|---3---------3----------3--2-|-----------------------------|
|---1---------1----------1--0-|---5---------5----------3--2-|
|-----------------------------|---5---------5----------3--2-|
|
|-----------------------------|-----------------------------|
|-(17)-20-18-20-(20)-20-18-20-|-(20)-20-18-20-(20)-20-18-20-|
|-----------------------------|-----------------------------|
|-----------------------------|-----------------------------|
|-----------------------------|-----------------------------|
|-----------------------------|-----------------------------|


 1.
  D5                            N.C.
|-----------------------------|--------------------------||
|-----------------------------|-------------------------o||
|-----------------------------|--------------------------||
|-----------------------------|--------------------------||
|-----------------------------|-----8--8--7-----8--8--7-o||
|---0---------0----------0----|--0-----------5-----------||
|
|-----------------------------|--------------------------||
|-----------------------------|-------------------------o||
|-----------------------------|--------------------------||
|-----------------------------|-----7--7--5-----7--7--5--||
|---0---------0----------0----|-------------------------o||
|---0---------0----------0----|--0-----------5-----------||
|
|-----------------------------|--------------------------||
|-(20)-18-17-18-(18)-18-17-18-|-17-18-17-15-17-15-13-15-o||
|-----------------------------|--------------------------||
|-----------------------------|--------------------------||
|-----------------------------|-------------------------o||
|-----------------------------|--------------------------||


  2.
  D5                         N.C.
|--------------------------|-------------------------|
|--------------------------|-------------------------|
|--------------------------|-------------------------|
|--------------------------|-------------------------|
|--------------------------|-----8--8--7-----8--8--7-|
|-0--------0----------0----|--0-----------5----------|
|
|--------------------------|-------------------------|
|--------------------------|-------------------------|
|--------------------------|-------------------------|
|--------------------------|-----7--7--5-----7--7--5-|
|-0--------0----------0----|-------------------------|
|-0--------0----------0----|--0-----------5----------|
|
|--------------------------|-------------------------|
|-x-22-20-22-(22)-22-20-22-|-17-18-17-15-17-15-13-15-|
|--------------------------|-------------------------|
|--------------------------|-------------------------|
|--------------------------|-------------------------|
|--------------------------|-------------------------|


   Ending Harmony 4
    D5
    Gtr II
||---------------------------|-----------------------------|
||o--------------------------|-----------------------------|
||---------------------------|-----------------------------|
||---------------------------|-----------------------------|
||o-8--------8----------8--8-|---8---------8----------8--8p|
||---------------------------|-----------------------------|
|
|   Gtr I
||---------------------------|-----------------------------|
||o--------------------------|-----------------------------|
||---------------------------|-----------------------------|
||--7--------7----------7--7-|---7---------7----------7--7-|
||o-5--------5----------5--5-|---5---------5----------5--5-|
||---------------------------|-----------------------------|
|
|   Gtr III
||----17-15-17-(17)-17-15-17-|-(17)-17-15-17-(17)-17-15-17-|
||o--------------------------|-----------------------------|
||---------------------------|-----------------------------|
||---------------------------|-----------------------------|
||o--------------------------|-----------------------------|
||---------------------------|-----------------------------|


  G5                            C5                 N.C.
|-----------------------------|------------------------------|
|-----------------------------|------------------------------|
|-----------------------------|------------------------------|
|-----------------------------|------------------------------|
|---7---------7----------7--7-|---7---------7------10-10h12--|
|-----------------------------|------------------------------|
|
|-----------------------------|------------------------------|
|-----------------------------|------------------------------|
|-----------------------------|------------------------------|
|--12--------12---------12-12S|===5---------5----------------|
|--10--------10---------10-10S|===3---------3-------7--7h=8--|
|-----------------------------|------------------------------|
|
|-(17)-15-13-15-(15)-15-13-15-|-(15)-15-13-15-(15)-15-13-15--|
|-----------------------------|------------------------------|
|-----------------------------|------------------------------|
|-----------------------------|------------------------------|
|-----------------------------|------------------------------|
|-----------------------------|------------------------------|


  Bb5                      A5   G5                    F5 E5
|-----------------------------|-----------------------------|
|-----------------------------|-----------------------------|
|-----------------------------|-----------------------------|
|-----------------------------|-----------------------------|
|---5---------5----------5--5-|---5---------5-------3--3h=5-|
|-----------------------------|-----------------------------|
|
|-----------------------------|-----------------------------|
|-----------------------------|-----------------------------|
|-----------------------------|-----------------------------|
|---3---------3----------3--2-|-----------------------------|
|---1---------1----------1--0-|---5---------5----------3--2-|
|-----------------------------|---5---------5----------3--2-|
|
|-(15)-18-17-18-(18)-18-17-18-|-(18)-18-17-18-(18)-18-17-18-|
|-----------------------------|-----------------------------|
|-----------------------------|-----------------------------|
|-----------------------------|-----------------------------|
|-----------------------------|-----------------------------|
|-----------------------------|-----------------------------|


 1.
  D5                            N.C.
|-----------------------------|--------------------------||
|-----------------------------|-------------------------o||
|-----------------------------|--------------------------||
|-----------------------------|--------------------------||
|-----------------------------|-----8--8--7-----8--8--7-o||
|---0---------0----------0----|--0-----------5-----------||
|
|-----------------------------|--------------------------||
|-----------------------------|-------------------------o||
|-----------------------------|--------------------------||
|-----------------------------|-----7--7--5-----7--7--5--||
|---0---------0----------0----|-------------------------o||
|---0---------0----------0----|--0-----------5-----------||
|
|-(18)-17-15-17-(17)-17-15-17-|-15-17-15-13-15-13-12-13--||
|-----------------------------|-------------------------o||
|-----------------------------|--------------------------||
|-----------------------------|--------------------------||
|-----------------------------|-------------------------o||
|-----------------------------|--------------------------||


  2.
  D5                         N.C.
|--------------------------|-------------------------|
|--------------------------|-------------------------|
|--------------------------|-------------------------|
|--------------------------|-------------------------|
|--------------------------|-----8--8--7-----8--8--7-|
|-0--------0----------0----|--0-----------5----------|
|
|--------------------------|-------------------------|
|--------------------------|-------------------------|
|--------------------------|-------------------------|
|--------------------------|-----7--7--5-----7--7--5-|
|-0--------0----------0----|-------------------------|
|-0--------0----------0----|--0-----------5----------|
|
|-x-20-18-20-(20)-20-18-20-|-15-17-15-13-15-13-12-13-|
|--------------------------|-------------------------|
|--------------------------|-------------------------|
|--------------------------|-------------------------|
|--------------------------|-------------------------|
|--------------------------|-------------------------|


  Dm
|-13--------|-(13)--------|-(13)--------|-(13)----*|
|-15--------|-(15)--------|-(15)--------|-(15)----*|
|-10--------|-(10)--------|-(10)--------|-(10)----*|
|-12--------|-(12)--------|-(12)--------|-(12)----*|
|--0--------|--(0)--------|--(0)--------|--(0)----*|
|--0--------|--(0)--------|--(0)--------|--(0)----*|
|
|-13--------|-(13)--------|-(13)--------|-(13)----*|
|-15--------|-(15)--------|-(15)--------|-(15)----*|
|-10--------|-(10)--------|-(10)--------|-(10)----*|
|-12--------|-(12)--------|-(12)--------|-(12)----*|
|--0--------|--(0)--------|--(0)--------|--(0)----*|
|--0--------|--(0)--------|--(0)--------|--(0)----*|
|
|-13--------|-(13)--------|-(13)--------|-(13)----*|
|-15--------|-(15)--------|-(15)--------|-(15)----*|
|-10--------|-(10)--------|-(10)--------|-(10)----*|
|-12--------|-(12)--------|-(12)--------|-(12)----*|
|--0--------|--(0)--------|--(0)--------|--(0)----*|
|--0--------|--(0)--------|--(0)--------|--(0)----*|




--------------------------------------------------------------------------------


Tablature Legend
----------------
 h   - hammer-on
 p   - pull-off
 b   - bend
 pb  - pre-bend
 r   - bend release (if no number after the r, then release immediately)
 /\  - slide into or out of (from/to "nowhere")
 s   - legato slide
 S   - shift slide
 - natural harmonic
[n]  - artificial harmonic
n(n) - tapped harmonic
 ~   - vibrato
 tr  - trill
 T   - tap
 TP  - trem. picking
 PM  - palm muting
\n/  - tremolo bar dip; n = amount to dip
 \n  - tremolo bar down
 n/  - tremolo bar up
/n\  - tremolo bar inverted dip
 =   - hold bend; also acts as connecting device for hammers/pulls
 <> - volume swell (louder/softer)
 x   - on rhythm slash represents muted slash
 o   - on rhythm slash represents single note slash

Misc Legend
-----------
 |  - bar
||  - double bar
||o - repeat start
o|| - repeat end
*|  - double bar (ending)
 :  - bar (freetime)
 $  - Segno
 &  - Coda
Tempo markers -  = BPM(8/16=s8/s16), where s8 = swing 8ths, s16 = swing 16ths





Comments


Popular Darkest Hour tabs & chords
Accessible Loss Tabs
Demons Intro Tabs
Legacy Tabs
No God Intro 1 Tabs
Paradox With The Flies Tabs
Pathos Tabs
Pathos 2 Tabs
Sadist Nation Tabs
So Sedated, So Secure Tabs
Treason In Trust Tabs


Song lyrics



↑ Back to top | Tablatures and chords are parodies/interpretations of the original songs. You may use it for private study, scholarship, research or language learning purposes only
© 2014 AZChords.com Contact us | Privacy policy | DMCA | Add/correct tabs | Request tabs | Top 50 tabs