» » »

Darkest Hour, This Curse Tabs (ver.1)

Artists:  A B C D E F G H I J K L M N O P Q R S T U V W X Y Z # 

This Curse Tabs (ver.1)

Darkest Hour Tabs
 Rating:
4/5 (4 votes)
This Curse lessons Tabs too difficult? Try these video lessons and learn fast
                oy guys......this is a gnarly ass song so i had to figure it out.....okay so they play
drop C
right and mostly its a barred chord song.....pretty much the whole part of it lol...but

thanx guys enjoy ze tab
|------------------------------|----------------------------------------|
|------------------------------|----------------------------------------|
|------------------------------|----------------------------------------|
|--5~--8-4~-------5~--8-0~-----|x2  --5~--8-4~------5~--8-0~------------|
|--5~--8-4~-------5~--8-0~-----|------5~--8-4~------5~--8-0~--3-3/5-5---|
|--5~--8-4~-------5~--8-0~-----|------5~--8-4~------5~--8-0~------------|

|------------------------------|
|------------------------------|
|------------------------------|
|--5~--8-4~------5~--8-0~------|
|--5~--8-4~------5~--8-0~------|
|--5~--8-4~------5~--8-0~------|

|----------------------------------------------------------------------|
|----------------------------------------------------------------------|
|----------------------------------------------------------------------|
|--5--8-4------5--8-0-----------------------5--8-4-----5--8-0----------| x2
|--5--8-4------5--8-0--3-3/5--5/6\5---------5--8-4-----5--8-0----------|
|--5--8-4------5--8-0-----------------------5--8-4-----5--8-0----------|

|----------------------------------------------------------------------|
|----------------------------------------------------------------------|
|----------------------------------------------------------------------|
|0-----------0------------8----------10--------------------------------|x4
|0--778877---0-778877-----8-778877---10---888877-----------------------|
|0-----------0------------8----------10--------------------------------|
*after second time harmonics come in

|------------------------------------|------------------------------------|
|------------------------------------|------------------------------------|
|------------------------------------|------------------------------------|
|------------------------------------|x3 ---------------------------------|
|----0-7-8-7-0-7-8-7--8-7h8-10-8-7---|----xx-7-8-7-0-7-8-7--8-7h8-10-8-7--|
|----0-7-8-7-0-7-8-7--8-7h8-10-8-7---|----xx-7-8-7-0-7-8-7--8-7h8-10-8-7--|

|------------------------------------------------------------------------|
|------------------------------------------------------------------------|
|------------------------------------------------------------------------|
|------------------------------------------------------------------------|x4
|--5--8-4-44444444444444444444---5--5-0---3h5--5--3--5<~ cut out 4th time|
|--5--8-4-44444444444444444444---5--8-0----------------------------------|
          ....................

|----------------------------------------------------------------------|
|----------------------------------------------------------------------|
|----------------------------------------------------------------------|
|0-----------0------------8----------10--------------------------------|x4
|0--778877---0-778877-----8-778877---10---888877-----------------------|
|0-----------0------------8----------10--------------------------------|
*after second time harmonics come in

|------------------------------------|------------------------------------|
|------------------------------------|------------------------------------|
|------------------------------------|------------------------------------|
|------------------------------------|x3 ---------------------------------|
|----0-7-8-7-0-7-8-7--8-7h8-10-8-7---|----xx-7-8-7-0-7-8-7--8-7h8-10-8-7--|
|----0-7-8-7-0-7-8-7--8-7h8-10-8-7---|----xx-7-8-7-0-7-8-7--8-7h8-10-8-7--|

|----------------------------------------------------------------------|
|----------------------------------------------------------------------|
|----------------------------------------------------------------------|
|--5--8-4------5--8-0-----------5--8-4-----5--8-0----------------------| x2
|--5--8-4------5--8-0-----------5--8-4-----5--8-0---------3-3/5--5/6\5-|
|--5--8-4------5--8-0-----------5--8-4-----5--8-0----------------------|

haven't figured out the solo yet
|----------------------------------------------------------------------|
|----------------------------------------------------------------------|
|----------------------------------------------------------------------|
|----------------------------------------------------------------------|
|-------------7---8---------7---0--------------------------------------|
|-------------7---8---------7---0--------------------------------------|
*throughout the entire solo

|----------------------------------------------------------------------|
|----------------------------------------------------------------------|
|----------------------------------------------------------------------|
|----------------------------------------------------------------------|
|--5h8-8-8--0~---------------------------------------------------------|
|--5h8-8-8--0~-----*havent figured out the lead part........sorry------|

enjoy da tab...contact info at top of page..
            
Submit corrections

comments powered by Disqus
↑ Back to top | Darkest Hour Tabs for This Curse. Lyrics for acoustic guitar and electric guitar. Tablatures and chords are parodies/interpretations of the original songs. You may use it for private study, scholarship, research or language learning purposes only