» » »

The Tides Tabs (ver.1)

Artists:  A B C D E F G H I J K L M N O P Q R S T U V W X Y Z # 

The Tides Tabs (ver.1)

Darkest Hour
Rating:
0/5 (0 votes)

Hard to play? Try these video lessons and learn fast.
                (Intro)
||-------------------------------------------------------||
||-------------------------------------------------------||
||-------------------------------------------------------||
||-------------------------------------------------------||
||-------8---7-------7---12-------12---11-------11---8---||
||-0-0-0---0---0-0-0---0----0-0-0----0----0-0-0----0-----||
   . . .   .   . . .   .    . . .    .    . . .    .

||-------------------------------------------------------------||
||-------------------------------------------------------------||
||-------------------------------------------------------------||
||-------------------------------------------------------------||
||-------12-12-12-------11-11-11-------11-11-11----------------||
||-8-8-8----------8-8-8----------7-7-7----------7-7-7-11-11-11-||
   . . .          . . .          . . .          . . . 


im working on the rest of the song. ill put it up when i figure it out
            
Hard to play? Try these video lessons and learn fast. | Correct




comments powered by Disqus
↑ Back to top | Tablatures and chords are parodies/interpretations of the original songs. You may use it for private study, scholarship, research or language learning purposes only