» » »

Darkest Hour, Legacy Bass tabs (ver.1)

Artists:  A B C D E F G H I J K L M N O P Q R S T U V W X Y Z # 

Legacy Bass tabs (ver.1)

Darkest Hour Tabs
Rating:
0/5 (0 votes)
Hard to play? Try these video lessons and learn fast.
                Band- Darkest Hour
Song- The legacy

Tuning: C G C F

Verse (0:05)
F |-------------------------------------|
C |-------------------------------------|
G |------55-----33-----3h5-7-5-3-3-5-7--|
C |--000----000----000------------------|

F |--------------------------------------|
C |--------------------------------------|
G |------77-----5h7p5-3-000-7-5-3-3-5-7--|
C |--777----777--------------------------|

F |-------------------------------------|
C |-------------------------------------|
G |------55-----33-----3h5-7-5-3-3-5-7--|
C |--000----000----000------------------|

F |-------------------------7-5----------|
C |-----------------------------8-7-5----|
G |------77-----5h7p5-3-000-----------8--|
C |--777----777--------------------------|

Pre Chorus (0:17)
F |------------------------------|
C |------------------------------|
G |-----8---7---8-----77-----88--|
C |--00---0---0---777----888-----|

Chorus (0:22)
F |-----------------------------|  |---------------|
C |-----------------------------|  |---------------|
G |--------8-----10-----10-8-7--|  |--555-7-88-10--|
C |--10-10---8-8----7-7---------|x3|---------------|

Verse (0:45)
Pre Chorus (0:56)
Chorus (1:01)

Brigde (1:24)
F |-------------------------------------|
C |-------------------------------------|
G |------55-----33-----3h5-7-5-3-3-5-7--|
C |--000----000----000------------------|

F |-----------------------------------|
C |----------------8888-77-555-5-7-8--|
G |------55-----33--------------------|
C |--000----000-----------------------|
(1:45)
F |---------------------------------|
C |---------------------------------|
G |---------------------------------|
C |--0~-3~-5~-7~-0~-3~-5~-7~-8-8-8--|
(1:56)
F |-------------------------------------------|
C |---------7--------7---------7----8-88-7-5--|
G |-----5-8---33-5-8-------5-8----------------|
C |--00-----------------88-------77-----------|

Fill 1 (2:18)
F |---------------|
C |---------------|
G |---------------|
C |--0~-0-7~-5-5--|

Verse (2:24)
Pre Chorus (2:35)
Chorus (2:40)

Ending (3:02)
F |----------------------------|
C |----------------------------|
G |----------------------------|
C |--0-000-0-000-0-000-000000--|
(3:05)
F |---------------------------------|
C |---------------------------------|
G |---------------------------------|
C |--0~-3~-5~-7~-0~-3~-5~-7~-8-8-8--|
(3:15)
F |-------------------------------------------|
C |---------7--------7---------7----8-88-7-5--|
G |-----5-8---33-5-8-------5-8----------------|
C |--00-----------------88-------77-----------|
(3:37)
F |--------------------------------|
C |--------------------------------|
G |--------------------------------|
C |--0-000-0-000-0-000-000000-11\--|
            

comments powered by Disqus
↑ Back to top | Darkest Hour Bass for Legacy. Lyrics for acoustic guitar and electric guitar. Tablatures and chords are parodies/interpretations of the original songs. You may use it for private study, scholarship, research or language learning purposes only