» » »

So Sedated, So Secure Tabs (ver.1)

Artists:  A B C D E F G H I J K L M N O P Q R S T U V W X Y Z # 

So Sedated, So Secure Tabs (ver.1)

Darkest Hour
Rating:
0/5 (0 votes)

Hard to play? Try these video lessons and learn fast.
                Band = Darkest Hour 
Album = So Sedated, So secure
Title = So Sedated, So Secure




b=bend
h=hammer
p=pulloff
.=palm mute
/=slide
T=Tap
#.= Staccato notes
~ = vibrato
X = Dead note
p.h. = pinch harmonic

Riff-A 

Both Guitars
d|--------------| 
A|--------------|
F|--------------| 
C|--5--8--3-----| X 1
G|--5--8--3-----| 
C|--5--8--3-----|

d|-------------------------------------| 
A|-------------------------------------|
F|-------------------------------------| 
C|--------8--3--5----------------------|
G|--------8--3--5-------55--88-3h5-----| 
C|---5555-8--3--5555555-55--88-3h5-----|


Riff-B

Guitar 1
d|-------------------------| 
A|-------------------------| 
F|-------------------------| 
C|-000000--55555-----------|
G|-000000--55555-----------| 
C|-000000--55555--88~-77~--|

Guitar 2
d|-------------------------------------------| 
A|-------------------------------------------| 
F|-10-10-10-10-10-/-12-/-10-10-10-10-10-10---| 
C|-------------------------------------------|
G|-8--8--8--8--8--/-10-/-8--8--8--8--8--8----| 
C|-------------------------------------------|


Riff-C

Guitar 1
d|-------------------------------------------| 
A|-------------------------------------------| 
F|-------------------------------------------| 
C|-------------------------------------------| 
G|--8-7h8p8-10-8-7-8---8-7-8---8-7h8p8-------| 
C|-------------------8-------7----------0----|


Guitar 2
d|------------------------------------------| 
A|------------------------------------------| 
F|------------------------------------------| 
C|--7-5h7p5-8-7-5-7---7-5-7---7-5h7p5-------| 
G|------------------------------------------| 
C|------------------8-------7----------0----|

Repeat
Riff A
Riff B
Riff C

Then

Both Guitars
d|--------------------| 
A|--------------------| 
F|--------------------| 
C|--8-------5---------|
G|--8-------5---------| 
C|--8-------5---------|

Just Guitar 1
d|----------------------------------------| 
A|----------------------------------------| 
F|----------------------------------------| 
C|------------------------------------0---|
G|--0-0-000-00-00-000-00-00-000-00-00-0---| 
C|--0-0-000-00-00-000-00-00-000-00-00-0---|
    . . ... .. .. ... .. .. ... .. .. 


Both Guitars 
d|-------------------------------------------| 
A|-------------------------------------------| 
F|-------------------------------------------| 
C|-------------------------------------------|
G|-5------8-----3--5--00-00-000-00-00-000----| 
C|--------------------00-00-000-00-00-000----|
                      .. .. ... .. .. ...

Every other time Guitar 2 does
d|-------------------------------------------| 
A|-------------------------------------------| 
F|-------------------------------------------| 
C|--3------7----2--3-------------------------|
G|--------------------00-00-000-00-00-000----| 
C|--------------------00-00-000-00-00-000----|
                      .. .. ... .. .. ...


Repeat
Riff A
Riff B
Riff C

End with

Both Guitars
d|---------------------| 
A|---------------------| 
F|---------------------| 
C|--8-------5------0---| X 2
G|--8-------5------0---| 
C|--8-------5------0---|


Both Guitars
d|-----------------------------| 
A|-----------------------------| 
F|-----------------------------|
C|-----------------------------| 
G|-5------8-7/8\7----3--5------| 
C|-----------------------------|
                      
After 4 times guitar 2 does

d|-----------------------------| 
A|-----------------------------| 
F|-----------------------------| 
C|-3------7-5/7\5----2--3------|
G|-----------------------------| 
C|-----------------------------|
            
Hard to play? Try these video lessons and learn fast. | Correct




comments powered by Disqus
↑ Back to top | Tablatures and chords are parodies/interpretations of the original songs. You may use it for private study, scholarship, research or language learning purposes only