>
 >
Sadist Nation

Sadist Nation Guitar Tabs

Darkest Hour - Sadist Nation chords, tabs, tablatures, lyrics

Guitar lessons | Add/correct | Request | Top 50 tabs Artists:  A B C D E F G H I J K L M N O P Q R S T U V W X Y Z 0-9

Sadist Nation Guitar Tabs – Darkest Hour

CD, Sheet music, Poster

Do you like Sadist Nation? Share with your friends now
Tabs
Tuning: Drop C

Intro 
|-------------------------|
|-------------------------|
|-------------------------|
|-0-0-0-0-0-0-0-0-0-0-0-0~|
|-0-0-0-0-0-0-0-0-0-0-0-0~|
|-0-0-0-0-0-0-0-0-0-0-0-0~|

Riff 1
|---------------------------------------|----------------|
|---------------------------------------|----------------|
|---------------------------------------|-7--3/5555/77---|
|---------------------------------------|-x--x/xxxx/xx---|
|---5-5---5-5-5-5----5-5---5-5-5---8~---|-5--1/3333/55---|
|-00-0-000-0-0-0-0-00-0-000-0-0-00-8~---|--------------0-|

|---------------------------------------|----------------|
|---------------------------------------|----------------|
|---------------------------------------|----------------|
|---------------------------------------|----------------|
|---5-5---5-5-5-5----5-5---5-5-5---8~---|-7~~~~~~5~~~~~--|
|-00-0-000-0-0-0-0-00-0-000-0-0-00-8~---|--------------0-|

|----------------------------------|
|----------------------------------|
|----------------------------------|
|----------------------------------|
|---5-5---5-5-5-5---5-5---5-5-5----|
|-00-0-000-0-0-0-000-0-000-0-0-00--|

|-------------------------------------------------------------------------------------------------|
|-------------------------------------------------------------------------------------------------|
|-------------------------------------------------------------------------------------------------|
|-----------------------------------------------------------------------------------------------0x|
|---12-12---12-12-12-12---12-12---8-5-0-3-7-3-----12-12---12-12-12-12---12-12---8-5-0-3-7-3-----0x|
|-88--8--888--8--8--8--7~7--7--777-----------78~88--8--888--8--8--8--7-7--7--777-----------7-8--0x|

Riff 2 (tremolo pick each note)
|----------------------------------------------------------------|
|----------------------------------------------------------------|
|----------------------------------------------------------------|
|----------------------------------------------------------------|
|-----8-8-5-5-7-7-8-8-----5-5-7-7----8-8-5-5-7-7-8-8-----5-5-7-7-|
|-0-0-----------------7-7---------0-0----------------7-7---------|

|---------------------------------------------------------|
|---------------------------------------------------------|
|---------------------------------------------------------|
|-------------6-6---------5-5---------6-6-----------------|
|-4-4-7-7-4-4-----4-4-7-7-----4-4-7-7-----4-4-7-7-4-4-8-8-|
|---------------------------------------------------------|

|-------------------------------|
|-------------------------------|
|-------------------------------|
|-(-----tremolo-pick------)-8-7-|  
|-(----8-8-5-5-7-7-8-8----)-8-7-|  
|-(0-0-----------------0-0)-8-7-|  



Riff 3
|--------------------------------------------------------------------------------|
|--------------------------------------------------------------------------------|
|--------------------------------------------------------------------------------|
|----------------------------------------10--10--10-12--12--12-8--8--8-7--5--3---|
|-12--12--12-10--10--10-8--8--8-7--10--7-----------------------------------------|
|---00--00--0--00--00--0-00-00-0-00--00-0--88--88--8--88--88--8-55-55-5-33-33--3-|

Riff 3
|--------------------------------------|
|--------------------------------------|
|--------------------------------------|
|------------------------------------8-|
|-12/------8--7---12/------8--7---8~-7-|
|-12/-0000--10-8--12/-0000--10-8--8~-5-|

|---------------------------------------------------------------------------------------------|
|---------------------------------------------------------------------------------------------|
|---------------------------------------------------------------------------------------------|
|-----------------------------7---5-7-8-7-5---7--5-3---7-5-3-7--5--3---8-------8--------8--7--|
|-8--7-5---8-7-5-8--7--5--1----------------------------------------------8-7-5-----8-7-5------|
|---------------------------------------------------------------------------------------------|

Riff 4
|------------------------------------------------------------------------------------------|
|------------------------------------------------------------------------------------------|
|------------------------------------------------------------------------------------------|
|------------------------------------------------------------------------------------------|
|----(8-8-5-5-7-7-8-8)----8-7------(8-8-5-5-7-7-8-8)----8-7----11--11--11--11--10--10--10~-|
|-0-0-----------------0-0-8-7---0-0-----------------0-0-8-7--0011001100110011001000100010~-|

Riff 5
|----------------------------------|
|----------------------------------|
|----------------------------------|
|----------------------------------|
|---5---7---5---8---7---8---7---10-|
|-7---7---7---7---8---8---8---8----|

Riff 6 
|-------------------------------------------------------------------------------------------------------|
|-------------------------------------------------------------------------------------------------------|
|-------------------------------------------------------------------------------------------------------|
|-------------------------------------------------------------------------------------------------------|
|---5-5---5-5---5----5-5---5-5---5----5-5---5-5---5----5-5---5-5---5----5-5---5-5---5----5-5---5-5---5--|
|-00-0-000-0-000-0-00-0-000-0-000-0-00-0-000-0-000-0-00-0-000-0-000-0-00-0-000-0-000-0-00-0-000-0-000-0-|

|-------------------------------------------------------------------------------------------------------|
|-------------------------------------------------------------------------------------------------------|
|-------------------------------------------------------------------------------------------------------|
|-------------------------------------------------------------------------------------------------------|
|---5-5---5-5---5----5-5---5-5---5----5-5---5-5---5----5-5---5-5---5----5-5---5-5---5----5-5---5-5---5--|
|-00-0-000-0-000-0-00-0-000-0-000-0-00-0-000-0-000-0-00-0-000-0-000-0-00-0-000-0-000-0-00-0-000-0-000-0-|

|-----------------------------------------------------------------------------|
|-----------------------------------------------------------------------------|
|-----------------------------------------------------------------------------|
|-----------------------------------------------------------------------------|
|---5-5---5-5---5----7-7---7-7---7----8-8---8-8---8----8-8---(7-8-8-8-8-7-7)--|
|-00-0-000-0-000-0-00-0-000-0-000-0-00-0-000-0-000-0-00-0-000---------------0-|

|-----------------------------------------------------------------|
|-----------------------------------------------------------------|
|-----------------------------------------------------------------|
|-----------------------------------------------------------------|
|-8-8-8-8-8-8-8-8-5-5-5-5-5-5-5-5-0-0-0-0-0-0-0-0-7-7-7-710101010-|
|-8-8-8-8-8-8-8-8-5-5-5-5-5-5-5-5-0-0-0-0-0-0-0-0-7-7-7-710101010-|

|-----------------------------------------------------------------|
|-----------------------------------------------------------------|
|-----------------------------------------------------------------|
|-888888888888777755555555577788877777777777777777333333322222----|
|-------------------------------------------------------------3333|
|-----------------------------------------------------------------|

|-----------------------------------------------------------------|
|-----------------------------------------------------------------|
|-----------------------------------------------------------------|
|-888888881010101088777777755778877777777777777777333333332222----|
|-------------------------------------------------------------3333|
|-----------------------------------------------------------------|

Riff 6
|-----------------------------------------------------------|
|-----------------------------------------------------------|
|-----------------------------------------------------------|
|---7-8----7-8-7----5-7--3-2-----7-8----7-8-7----5-7--3-2---|
|----------------------------3----------------------------3-|
|-8------5--------0-------------8------5--------0-----------|

Outro
|--------------------------------------------------------------------------------------------------|
|--------------------------------------------------------------------------------------------------|
|--------------------------------------------------------------------------------------------------|
|--------------------------------------------------------------------------------------------------|
|------------------------------------------------------------10--10--10-12--12--12-8--8--8-7--5--3-|
|----(8-8-5-5-7-7-8-8)----8-7------(8-8-5-5-7-7-8-8)----8-7----------------------------------------|
|-0-0-----------------0-0-8-7---0-0-----------------0-0-8-7----88--88--8--88--88--8-55-55-5-33-33-3|

|-----------------------------------------------|
|-----------------------------------------------|
|-----------------------------------------------|
|-----------------------------------------------|
|---5---7---5---8-|---7---8---7---10-|-0-0x--0x-|
|-7---7---7---7---|-8---8---8---8----|-0-0x--0x-|





Comments


Popular Darkest Hour tabs & chords
Eclipse Bass Tabs
How The Beautiful Decay Bass Tabs
How The Beautiful Decay 2 Bass Tabs
The Legacy Bass Tabs
Another Reason Tabs
District Divided Tabs
Doomsayer 4 Tabs
How The Beautiful Decay Tabs
Tunguska Tabs
With A Thousand Words To Say But One 1 Tabs


Song lyrics



↑ Back to top | Tablatures and chords are parodies/interpretations of the original songs. You may use it for private study, scholarship, research or language learning purposes only
© 2014 AZChords.com Contact us | Privacy policy | DMCA | Add/correct tabs | Request tabs | Top 50 tabs