» » »

Part Ii Tabs (ver.1)

Artists:  A B C D E F G H I J K L M N O P Q R S T U V W X Y Z # 

Part Ii Tabs (ver.1)

Darkest Hour
Rating:
0/5 (0 votes)

Tabs too difficult? Try these video lessons and learn fast.
                Band- Darkest Hour
Song- Part II

Tuned (D, A, D, G, B, E)

/   Slide Up
\   Slide Down
h   Hammer On
p   Pull Off
b   Bend String Up
r   Release Bend
X   Mute String
.   Palm Mute

|------------------------------------------------------------------------------|
|------------------------------------------------------------------------------|
|------0---0---------0---0--------0---0--------0---0---------------------------|
|----3---3---3-----3---3---3----3---3---3----3---3---3-------------------------|
|-----------------------------1------------3-----------------------------------|
|-0-------------3--------------------------------------------------------------| X 8
  Guitar 1

|------------------------------------------------------------------------------|
|------------------------------------------------------------------------------|
|------------------------------------------------------------------------------|
|-8-------------7-------------3------------5-----------------------------------|
|-8-------------8-------------5------------7-----------------------------------|
|------------------------------------------------------------------------------| X 1
  Guitar 2      (Comes in after Guitar 1 plays line one time)

|------------------------------------------------------------------------------|
|------------------------------------------------------------------------------|
|------------------------------------------------------------------------------|
|------8---8----7-------------3------------5-------3---------------------------|
|-0----8---8----8-------------5------------7-----------------------------------|
|------------------------------------------------------------------------------| X 6
  Guitar 2 (Cont.)

|------------------------------------------------------------------------------|
|------------------------------------------------------------------------------|
|------0---0---------0---0--------0---0--------0---0---------------------------|
|----3---3---3-----3---3---3----3---3---3----3---3---3-------------------------|
|----------------0-------------------------------------------------------------|
|-5---------------------------1------------1-----------------------------------| X 4
  Guitar 1

|------------------------------------------------------------------------------|
|------------------------------------------------------------------------------|
|-------------------------------------5----5h7-5h7-5---------------------------|
|---5-3-5-7--------8-5---7------8-5-----7-------------7------------------------|
|-----------8----------8---8--------8------------------------------------------|
|-5--------------7------------X------------------------------------------------| X 4
  Guitar 2

|------------------------------------------------------------------------------|
|------------------------------------------------------------------------------|
|------0---0---------0---0--------0---0--------0---0---------------------------|
|----3---3---3-----3---3---3----3---3---3----3---3---3-------------------------|
|-----------------------------1------------3-----------------------------------|
|-0-------------3--------------------------------------------------------------| X 6
  Guitar 1

|------------------------------------------------------------------------------|
|------------------------------------------------------------------------------|
|------------------------------------------------------------------------------|
|-8-------------7-------------3------------5-----------------------------------|
|-8-------------8-------------5------------7-----------------------------------|
|------------------------------------------------------------------------------| X 1
  Guitar 2

|------------------------------------------------------------------------------|
|------------------------------------------------------------------------------|
|------------------------------------------------------------------------------|
|------8---8----7-------------3------------5-------3---------------------------|
|-0----8---8----8-------------5------------7-----------------------------------|
|------------------------------------------------------------------------------| X 5
  Guitar 2 (Cont.)

|------------------------------------------------------------------------------|
|------------------------------------------------------------------------------|
|-----------------------------5------------------------------------------------|
|-5-------------/7------------3------------------------------------------------|
|-3---------------------------1--------------------0---------------------------|
|------------------------------------------------------------------------------|
  Guitar 1

|------------------------------------------------------------------------------|
|---------1--------------------------------------------------------------------|
|---2-------3---3--------------------------------------------------------------|
|-----3-------------3-5---3-5--3h5p3-------------------------------------------|
|-------------3---1-----3------------------------------------------------------|
|-0-----0----------------------------------------------------------------------|
  Guitar 1 (Plays Once)

|------------------------------------------------------------------------------|
|---------1--------------------------------------------------------------------|
|---2-------3---3---2-3---2-3--2h3p2-------------------------------------------|
|-----3-------2---0-----2------------------------------------------------------|
|------------------------------------------------------------------------------|
|-0-----0----------------------------------------------------------------------| X 13
  Guitar 2 (Comes in with this after Guitar 1 plays above line 1)

|------------------------------------------------------------------------------|
|------------------------------------------------------------------------------|
|----------2-----3-------------------------------------------------------------|
|---3--------3--------3-5----3-5--3h5p3----------------------------------------|
|-----5--------3---1-------3---------------------------------------------------|
|-0-----0----------------------------------------------------------------------| X 13
  Guitar 1
            
Tabs too difficult? Try these video lessons and learn fast.




comments powered by Disqus
↑ Back to top | Tablatures and chords are parodies/interpretations of the original songs. You may use it for private study, scholarship, research or language learning purposes only