» » »

Darkest Hour, Paradox With The Flies Tabs (ver.2)

Artists:  A B C D E F G H I J K L M N O P Q R S T U V W X Y Z # 

Paradox With The Flies Tabs (ver.2)

Darkest Hour Tabs
 Rating:
4/5 (4 votes)
Paradox With The Flies lessons Tabs too difficult? Try these video lessons and learn fast
1
                (Intro)
Darkest Hour                  Paradox with the Flies                              

                                                                    



       PM   PM   PM     PM   PM   PM        

D||----------------------------------------|
A||----------------------------------------|
F||----------------------------------------|
C||-------------------2--------------------|
G||--0----2----3----5------5----3----2-0-2-|
C||----0----0----0------0----0----0--------|


    PM   PM   PM     PM   PM   PM        
----------------------------------------|
----------------------------------------|
----------------------------------------|
-------------------2--------------------|
--0----2----3----5------5----3----2-0-2-|
----0----0----0------0----0----0--------|


    PM   PM   PM     PM   PM   PM        
----------------------------------------|
----------------------------------------|
----------------------------------------|
----------------------------------------|
--7----7----8----7-7----5----5----5-7-8-|
----7----7----7------7----7----7--------|


    PM   PM   PM       PM   PM   PM        
------------------------------------------|
------------------------------------------|
------------------------------------------|
------------------------------------------|
--7----7----8----10-10----8----7----8-7-5-|
----7----7----7--------7----7----7--------|
            
Submit corrections

comments powered by Disqus
↑ Back to top | Darkest Hour Tabs for Paradox With The Flies. Lyrics for acoustic guitar and electric guitar. 1 Tablatures and chords are parodies/interpretations of the original songs. You may use it for private study, scholarship, research or language learning purposes only