» » »

Oklahoma Bass tabs (ver.1)

Artists:  A B C D E F G H I J K L M N O P Q R S T U V W X Y Z # 

Oklahoma Bass tabs (ver.1)

Darkest Hour
Rating:
0/5 (0 votes)

Hard to play? Try these video lessons and learn fast.
                Band- Darkest Hour
Song- Oklahoma

Tuning: C G C F

Riff 1 (0:00)
F |---------------------------------------------|
C |---------------------------------------------|
G |-------------8-7-5-------------------10-8-7--|
C |--2-2-22-222-------22-2-22-2-22-2-22---------|

F |----------------------------------------------------|
C |----------------------------------------------------|
G |--------------------10-9-7-------------------7-5-7--|
C |--22-2-22-2-22-2-22--------22-2-22-2-22-2-22--------|

F |---------------------|
C |---------------------|
G |---------------------|
C |--22-2-2-2-22-222-2--|

Fill 1 (0:20)
F |----------------|
C |----------------|
G |----------------|
C |--2------7-5-2--|

Riff 2 (0:24)
F |--------------------------------------|
C |--------------------------------------|
G |--------------------------------------|
C |--00000-10-00000-8-00000-7-00-5-00-3--|

Riff 3 (0:38)
F |---------------------|        |----------|
C |---------------------|        |----------|
G |---------------------|        |----------|
C |--3-3-33-8888-77-55--|x4 then |--3-3-33--|

Riff 2 (0:53)
Riff 3 (1:07)

Fill 2 (1:36)
F |---------|
C |---------|
G |---------|
C |--2~-22--|

Riff 4 (1:51)
F |-----------------------|
C |-----------------------|
G |-----------------------|
C |--7-5~-7-5~-5-3~-3-2~--|

Riff 5 (2:23)
F |-------------------------------------------|
C |-------------------------------------------|
G |-------------------------------------------|
C |--2-000-2-000-2-000-2-000-555-555-333-333--|
(2:39)
F |---------------------------------|
C |---------------------------------|
G |---------------------------------|
C |--2-000-2-000-2-000-2-000-5~-3~--|

Riff 1 (2:53)
Fill 2 (3:13)
Riff 2 (3:17)
Riff 3 (3:31)

Ending (3:46)
F |--------------------|
C |--------------------|
G |--1-------3---------|
C |----00000---00000-2-|
            
Hard to play? Try these video lessons and learn fast. | Correct




comments powered by Disqus
↑ Back to top | Tablatures and chords are parodies/interpretations of the original songs. You may use it for private study, scholarship, research or language learning purposes only