>
 >
Mark Of The Judas 1

Mark Of The Judas 1 Guitar Tabs

Darkest Hour - Mark Of The Judas 1 chords, tabs, tablatures, lyrics

Guitar lessons | Add/correct | Request | Top 50 tabs Artists:  A B C D E F G H I J K L M N O P Q R S T U V W X Y Z 0-9

Mark Of The Judas 1 Guitar Tabs – Darkest Hour

CD, Sheet music, Poster

Do you like Mark Of The Judas 1? Share with your friends now
TabsTabs v2

   Guitars I, II
D||---------------------------------------------------------------------|
A||---------------------------------------------------------------------|
F||---------------------------------------------------------------------|
C||-0~------------------------------------------------------------------|
G||-0~------------------------------------------------------------------|
C||-0~------------------------------------------------------------------|

   Guitar I
D||---------------------------------------------------------------------|
A||---------------------------------------------------------------------|
F||---------------------------------------------------------------------|
C||---------------------------------------------------------------------|
G||-5-5-5-5-5-5-5-5-10-10-10-8-8-8-7h8-1-1-1-1-1-1-1-1--0-0-0-3---0-3-5-|
C||-----------------------------------------------------0-0-0-3---0-3-5-|
 ||
 ||Guitar II
D||---------------------------------------------------------------------|
A||---------------------------------------------------------------------|
F||---------------------------------------------------------------------|
C||---------------------------------------------------------------------|
G||-0~--------------------------------------------------0-0-0-3---0-3-5-|
C||-0~--------------------------------------------------0-0-0-3---0-3-5-|

   Guitar I
D||---------------------------------------------------------------------|
A||---------------------------------------------------------------------|
F||---------------------------------------------------------------------|
C||---------------------------------------------------------------------|
G||-5-5-5-5-5-5-5-5-10-10-10-8-8-8-7h8-1-1-1-1-1-1-1-1--0-0-0-3---0-3-5-|
C||-----------------------------------------------------0-0-0-3---0-3-5-|x3
 ||
 ||Guitar II
D||-------------------------------------------------------------------------|
A||-------------------------------------------------------------------------|
F||-7-7-7-7-7-7-7-7-12-12-12-10-10-10-9h10-3-3-3-3-3-3-3-3------------------|
C||-------------------------------------------------------------------------|
G||---------------------------------------------------------0-0-0-3---0-3-5-|
C||---------------------------------------------------------0-0-0-3---0-3-5-|x3

   Guitars I, II
D||------------------------------------------------------------|
A||------------------------------------------------------------|
F||------------------------------------------------------------|
C||-------------------------7-5---3--3-3-3-3--3-------5-5---7--|
G||-------------------------5-3---1--1-1-1-1--1-3-3---3-3---5--|
C||-000-000-000-000-000-000---------------------3-3------------|x2
PM|-xxx-xxx-xxx-xxx-xxx-xxx------------------------------------|

   Guitars I, II
D||------------------------------------------------------------|
A||------------------------------------------------------------|
F||------------------------------------------------------------|
C||-------------------------7-5---3--3-3-3-3--3-------5-5---7--|
G||-0~--0~--0~--0~--0~--0~--5-3---1--1-1-1-1--1-3-3---3-3---5--|
C||-0~--0~--0~--0~--0~--0~----------------------3-3------------|x4

   Guitar I
D||-------------------------------------|
A||-------------------------------------|
F||-------------------------------------|
C||-----7-8------7-8------7-8------7-8--|
G||-5~-------5~-------1~-------3~-------|
C||-------------------------------------|x3
 ||
 ||Guitar II
D||-------------------------------------|
A||-------------------------------------|
F||-------------------------------------|
C||-7---7-8--7---7-8--3---7-8--5---7-8--|
G||-5---7-8--5---7-8--1---7-8--3---7-8--|
C||-------------------------------------|x3

   Guitar I
D||-------------------------------------|
A||-------------------------------------|
F||-------------------------------------|
C||-----7-8------7-8------7-8------7-8--|
G||-5~-------5~-------1~-------3~-------|
C||-------------------------------------|
 ||
 ||Guitar II
D||-------------------------------------|
A||-------------------------------------|
F||-------------------------------------|
C||-7---7-8--7---7-8\---------(8)/------|
G||-5---7-8--5---7-8\---------(8)/------|
C||-------------------------------------|

   Guitar I
D||---------------------------------------------------------------------|
A||---------------------------------------------------------------------|
F||---------------------------------------------------------------------|
C||---------------------------------------------------------------------|
G||-5-5-5-5-5-5-5-5-10-10-10-8-8-8-7h8-1-1-1-1-1-1-1-1--0-0-0-3---0-3-5-|
C||-----------------------------------------------------0-0-0-3---0-3-5-|x4
 ||
 ||Guitar II
D||-------------------------------------------------------------------------|
A||-------------------------------------------------------------------------|
F||-7-7-7-7-7-7-7-7-12-12-12-10-10-10-9h10-3-3-3-3-3-3-3-3------------------|
C||-------------------------------------------------------------------------|
G||---------------------------------------------------------0-0-0-3---0-3-5-|
C||---------------------------------------------------------0-0-0-3---0-3-5-|x4

   Guitars I, II
D||------------------------------------------------------------|
A||------------------------------------------------------------|
F||------------------------------------------------------------|
C||-------------------------7-5---3--3-3-3-3--3-------5-5---7--|
G||-------------------------5-3---1--1-1-1-1--1-3-3---3-3---5--|
C||-000-000-000-000-000-000---------------------3-3------------|x2
PM|-xxx-xxx-xxx-xxx-xxx-xxx------------------------------------|

   Guitars I, II
D||------------------------------------------------------------|
A||------------------------------------------------------------|
F||------------------------------------------------------------|
C||-------------------------7-5---3--3-3-3-3--3-------5-5---7--|
G||-0~--0~--0~--0~--0~--0~--5-3---1--1-1-1-1--1-3-3---3-3---5--|
C||-0~--0~--0~--0~--0~--0~----------------------3-3------------|x4

   Guitar I
D||-------------------------------------|
A||-------------------------------------|
F||-------------------------------------|
C||-----7-8------7-8------7-8------7-8--|
G||-5~-------5~-------1~-------3~-------|
C||-------------------------------------|x4
 ||
 ||Guitar II
D||-------------------------------------|
A||-------------------------------------|
F||-------------------------------------|
C||-7---7-8--7---7-8--3---7-8--5---7-8--|
G||-5---7-8--5---7-8--1---7-8--3---7-8--|
C||-------------------------------------|x4

   Guitar I
D||------------------------------------------------|
A||------------------------------------------------|
F||------------------------------------------------|
C||------------------------------------------------|
G||--------------------12\-33333333333333-----5555-|
C||--------------------12\---------------3333------|
 ||
 ||Guitar II
D||------------------------------------------------|
A||------------------------------------------------|
F||-4444244442444424444---444424444244442777222----|
C||--------------------222---------------------222-|
G||------------------------------------------------|
C||------------------------------------------------|

   Guitar I
D||------------------------------------------------|
A||------------------------------------------------|
F||------------------------------------------------|
C||------------------------------------------------|
G||--------------------333333333333333333-----5555-|
C||-2222222222222222222------------------3333------|x3
 ||
 ||Guitar II
D||------------------------------------------------|
A||------------------------------------------------|
F||-4444244442444424444---444424444244442777222----|
C||--------------------222---------------------222-|
G||------------------------------------------------|
C||------------------------------------------------|x3

   Guitar I
D||---------------------------------------------------------------------------------------------|
A||---------------------------------------------------------------------------------------------|
F||---------------------------------------------------------------------------------------------|
C||-5p4-5-5p4-5-5p4-5-4----5p4-5-5p4-5-5p4-5-4----5p4-5-5p4-5-5p4-5-4----5p4-5-5p4-5-4-7--7--9--|
G||---------------------5----------------------3----------------------0----------------5--7--7--|
C||---------------------------------------------------------------------------------------------|x3
 ||
 ||Guitar II
D||---------------------------------------------------------------------------------------------|
A||---------------------------------------------------------------------------------------------|
F||-4p2-4-4p2-4-4p2-4-2----4p2-4-4p2-4-4p2-4-2----4p2-4-4p2-4-4p2-4-2----4p2-4-4p2-4-2-7--2--4--|
C||---------------------4----------------------2----------------------5-------------------------|
G||---------------------------------------------------------------------------------------------|
C||---------------------------------------------------------------------------------------------|x3

   Guitar I
D||------------------------------------------------------------------------------------------------------|
A||------------------------------------------------------------------------------------------------------|
F||------------------------------------------------------------------------------------------------------|
C||-5p4-5-5p4-5-5p4-5-4----5p4-5-5p4-5-5p4-5-4----5p4-5-5p4-5-5p4-5-4----5p4-5-5p4-5-4-7--7--9-----------|
G||---------------------5----------------------3----------------------0----------------5--7--7-------12\-|
C||--------------------------------------------------------------------------------------------------12\-|
 ||
 ||Guitar II
D||------------------------------------------------------------------------------------------------------|
A||------------------------------------------------------------------------------------------------------|
F||-4p2-4-4p2-4-4p2-4-2----4p2-4-4p2-4-4p2-4-2----4p2-4-4p2-4-4p2-4-2----4p2-4-4p2-4-2-7--2--4-----------|
C||---------------------4----------------------2----------------------5----------------------------------|
G||--------------------------------------------------------------------------------------------------12\-|
C||--------------------------------------------------------------------------------------------------12\-|  

   Guitar I
D||---------------------------------------------------------------------|
A||---------------------------------------------------------------------|
F||---------------------------------------------------------------------|
C||---------------------------------------------------------------------|
G||-5-5-5-5-5-5-5-5-10-10-10-8-8-8-7h8-1-1-1-1-1-1-1-1--0-0-0-3---0-3-5-|
C||-----------------------------------------------------0-0-0-3---0-3-5-|x4
 ||
 ||Guitar II
D||-------------------------------------------------------------------------|
A||-------------------------------------------------------------------------|
F||-7-7-7-7-7-7-7-7-12-12-12-10-10-10-9h10-3-3-3-3-3-3-3-3------------------|
C||-------------------------------------------------------------------------|
G||---------------------------------------------------------0-0-0-3---0-3-5-|
C||---------------------------------------------------------0-0-0-3---0-3-5-|x4

   Guitars I, II
D||------------------------------------------------------------|
A||------------------------------------------------------------|
F||------------------------------------------------------------|
C||-------------------------7-5---3--3-3-3-3--3-------5-5---7--|
G||-------------------------5-3---1--1-1-1-1--1-3-3---3-3---5--|
C||-000-000-000-000-000-000---------------------3-3------------|x2
PM|-xxx-xxx-xxx-xxx-xxx-xxx------------------------------------|

   Guitars I, II
D||------------------------------------------------------------|
A||------------------------------------------------------------|
F||------------------------------------------------------------|
C||-------------------------7-5---3--3-3-3-3--3-------5-5---7--|
G||-0~--0~--0~--0~--0~--0~--5-3---1--1-1-1-1--1-3-3---3-3---5--|
C||-0~--0~--0~--0~--0~--0~----------------------3-3------------|x2

   Guitar I
D||------------------------------------------------------------|
A||------------------------------------------------------------|
F||------------------------------------------------------------|
C||-------------------------7-5---3--3-3-3-3--3-------5-5---7--|
G||-0~--0~--0~--0~--0~--0~--5-3---1--1-1-1-1--1-3-3---3-3---5--|
C||-0~--0~--0~--0~--0~--0~----------------------3-3------------|x5
 ||
 ||Guitar II
D||------------------------------------------------------------|
A||------------------------------------------------------------|
F||-7~----------------------7--5--8~-----8--7--3~-----3--5--7--|
C||------------------------------------------------------------|
G||------------------------------------------------------------|
C||------------------------------------------------------------|x5

   Guitar I
D||------------------------------------------------------------|
A||------------------------------------------------------------|
F||------------------------------------------------------------|
C||-------------------------7-5---3--3-3-3-3--3-------5-5---7--|
G||-0~--0~--0~--0~--0~--0~--5-3---1--1-1-1-1--1-3-3---3-3---5--|
C||-0~--0~--0~--0~--0~--0~----------------------3-3------------|
 ||
 ||Guitar II
D||------------------------------------------------------------|
A||------------------------------------------------------------|
F||-7~----------------------7--5--8~-----8--7--3~-----3--5--7*-|
C||------------------------------------------------------------|
G||------------------------------------------------------------|
C||------------------------------------------------------------|





Comments


Popular Darkest Hour tabs & chords
An Epitaph Bass Tabs
The Legacy Bass Tabs
An Epitaph Tabs
Another Reason Tabs
Blessed Infection Tabs
Convalescence 1 Tabs
Full Imperial Collapse Tabs
Legacy Tabs
With Friends Like These Intro Tabs
Your Guts My Glory Intro Tabs


Song lyrics



↑ Back to top | Tablatures and chords are parodies/interpretations of the original songs. You may use it for private study, scholarship, research or language learning purposes only
© 2014 AZChords.com Contact us | Privacy policy | DMCA | Add/correct tabs | Request tabs | Top 50 tabs