» » »

Darkest Hour, Low Tabs (ver.1)

Artists:  A B C D E F G H I J K L M N O P Q R S T U V W X Y Z # 

Low Tabs (ver.1)

Darkest Hour Tabs
 Rating:
4/5 (4 votes)
Low lessons Tabs too difficult? Try these video lessons and learn fast
1
                LOW BY DARKEST HOUR

I ONLY HAVE SOME OF THE PARTS FOR THE SONG
BUT PLAY IT THE BEST YOU CAN.

Bass first note:
e|-------------------------------------------------------------------------|
B|-------------------------------------------------------------------------|
G|-------------------------------------------------------------------------|
D|-------------------------------------------------------------------------|
A|-------------------------------------------------------------------------|
E|---0---------------------------------------------------------------------|


2nd guitar:
e|-------------------------------------------------------------------------|
B|-------------------------------------------------------------------------|
G|-------------------------------------------------------------------------|
D|-------------------------------------------------------------------------|
A|-------5--/2-------------------------------------------------------------|
E|-------------------------------------------------------------------------|


goes into after intro

Geetar 3 chorus
e|-------------------------------------------------------------------------|
B|-------------------------------------------------------------------------|
G|-------------7--9--------------------------------------------------------|
D|---5-X16-----7--9--------------------------------------------------------|
A|---5---------5--7--------------------------------------------------------|
E|---5---------------------------------------------------------------------|
     .

e|---------------------------------------------------------------| 
B|---------------------------------------------------------------| 
G|-------------------44-------44-------44------------------------|
D|---5-x16---2-x16---44-------44-------44-------7-11-------------| --- X4
A|---5-------2-------22--5-4--22--5-4--22--5-4--5-9--------------| 
E|---5-------2---------------------------------------------------| 
                                                                   
AFTER THAT IT GOES RIGHT INTO THIS:                                                                 
e|------------------------------------------------------------------|
B|------------------------------------------------------------------|
G|------------------------------------------------------------------|
D|---12-~-11-~-12-~-14-~-11-~---------------------------------------|
A|---10-~-9-~--10-~-12-~-9-~----9--/2-------------------------------|
E|------------------------------------------------------------------|


3rd geetar:  
e|------------------------------------------------------------------|X4
B|------------------------------------------------------------------|
G|------------------------------------------------------------------|
D|---5-X8?----2-X8?--9-X16?-----------------------------------------|
A|---5--------2------9----------------------------------------------|
E|---5--------2------9----------------------------------------------|
     .        .      .  (play fast) (faster 3rd time)

2nd or 1st guitar?:
e|------------------------------------------------------------------|X4
B|------------------------------------------------------------------|
G|------------------------------------------------------------------|
D|------------------------------------------------------------------|
A|---5--5-4-5--5-7-9--9-10-9-7--------------------------------------|
E|------------------------------------------------------------------|
(let the notes ring) (3rd time dont let them ring)


after that only 1st or 2nd guitar plays:
e|----------------------------------------------------------------|
B|----------------------------------------------------------------|
G|----------------------------7-X3--------------------------------|
D|----------------------------7-----------------------------------|
A|--10-9-10--7-9-10-12-10-----5-----10-9-5--/7-7------------------|
E|----------------------------------------------------------------|

3rd guitar
e|----------------------------------------------------------------|
B|----------------------------------------------------------------|
G|----------------------------------------------------------------|
D|-----------------------------0-X3-------------------------------|
A|-----------------------------0----------------------------------|
E|-----------------------------0----------------------------------|



after that i got the backup geetar:

e|-------------------------------------------------------------------|X2
B|-------------------------------------------------------------------|
G|-------------------------------------------------------------------|
D|---5-X16--0-X16-9-X16/-10------------------------------------------|
A|---5------0-----9/-10----------------------------------------------|
E|---5------0-----9/-10----------------------------------------------|

Next pre chorus
e|------------------------------------------------------------------|X2
B|------------------------------------------------------------------|
G|------------------------------------------------------------------|
D|---7--7-6-7--7-9-11-11-12-11-9------------------------------------|
A|---5--5-4-5--5-7-9--9--10-9--7------------------------------------|
E|------------------------------------------------------------------|


Chours:( the cool part)
e|----------------------------------------------------------------------| X2
B|------------------------------------------------------------------------|
G|------------------------------------------------------------------------|
D|---22-5544--22-5544--55-5544--55-5544--44-4400--44-4400--44-4400--------|
A|---22-------22-------55-------55-------22-------22-------22-------4/7---|
E|---22-------22-------55-------55----------------------------------2/5---|

e|-------------------------------------------------------------------------|
B|-------------------------------------------------------------------------|
G|-------------7--9--------------------------------------------------------|
D|---5-X16-----7--9--------------------------------------------------------|
A|---5---------5--7--------------------------------------------------------|
E|---5---------------------------------------------------------------------|
     .

e|---------------------------------------------------------------| 
B|---------------------------------------------------------------| 
G|-------------------44-------44-------44------------------------|
D|---5-x16---2-x16---44-------44-------44-------7-11-------------| --- X2
A|---5-------2-------22--5/4--22--5/4--22--5/4--5-9--------------| 
E|---5-------2---------------------------------------------------| 


replay this again

e|------------------------------------------------------------------|X3
B|------------------------------------------------------------------|
G|------------------------------------------------------------------|
D|------------------------------------------------------------------|
A|---5--5-4-5--5-7-9--9-10-9-7--------------------------------------|
E|------------------------------------------------------------------|
(1st 2 times dont ring the notes)(3rd time let the notes ring)

END!
            
Submit corrections

comments powered by Disqus
↑ Back to top | Darkest Hour Tabs for Low. Lyrics for acoustic guitar and electric guitar. 1 Tablatures and chords are parodies/interpretations of the original songs. You may use it for private study, scholarship, research or language learning purposes only