>
 >
For The Soul Of The Savior

For The Soul Of The Savior Guitar Tabs

Darkest Hour - For The Soul Of The Savior chords, tabs, tablatures, lyrics

Guitar lessons | Add/correct | Request | Top 50 tabs Artists:  A B C D E F G H I J K L M N O P Q R S T U V W X Y Z 0-9

For The Soul Of The Savior Guitar Tabs – Darkest Hour

CD, Sheet music, Poster

Do you like For The Soul Of The Savior? Share with your friends now
Tabs
Band = Darkest Hour 
Album = The Mark of the Judas
Title = For the soul of the savior




b=bend
h=hammer
p=pulloff
.=palm mute
/=slide
T=Tap
#.= Staccato notes
~ = vibrato
X = Dead note
p.h. = pinch harmonic

Riff-A 

Both Guitars
d|-------------------------------------------------------------------| 
A|-------------------------------------------------------------------| 
F|-------------------------------------------------------------------| 
C|------------------------------------0---2---3---0---2---8-7-5------|
G|-----5---7---8---5---7---8-7-5--1-1---1---1---1---1---1-------5~---| 
C|-0-0---0---0---0---0---0-------------------------------------------|
   . .   .   .   .   .   .        . .   .   .   .   .   .

Both Guitars
d|----------------------------------------------------------| 
A|----------------------------------------------------------| 
F|----------------------------------------------3-3---------| 
C|------------------------------------0---2---3-3-3-3-3--0--|
G|-----5---7---8---5---7---8-7-5--1-1---1---1---1-1-3-3--0--| 
C|-0-0---0---0---0---0---0--------------------------3-3--0--|
   . .   .   .   .   .   .        . .   .   .   .   .

Riff-B


Guitar 1
d|----------------------------------------------------------------------| 
A|----------------------------------------------------------------------| 
F|----------------------------------------------------------------------| 
C|---------5---------------5----------------5--------------------5------| X 1
G|---5-7-8---8-7-5---5-7-8---8-7-5----5-7-8---8-7-5---5-7-8--------8-7~-| 
C|-0---------------8----------------5---------------8-------------------|

Guitar 2
d|----------------------------------------------------------------------| 
A|----------------------------------------------------------------------| 
F|----------------------------------------------------------------------| 
C|----------------------------------------------------------------------| X 1
G|-555-3-555-3-555-3-555-3-555-3-555-3-555-3-555-3-555-3----------------| 
C|----------------------------------------------------------------------|


Guitar 1
d|----------------------------------------------------------------------| 
A|----------------------------------------------------------------------| 
F|----------------------------------------------------------------------| 
C|-----------------555------------------------------555-----------------|
G|-----555-777-888-----888-777-555------555-777-888-----888-777-555-----| 
C|-000------------------------------888---------------------------------|

d|----------------------------------------------------------------------| 
A|----------------------------------------------------------------------| 
F|----------------------------------------------------------------------| 
C|-----------------555--------------------------------------------------|
G|-----555-777-888-----888-777-555------555-777-888-----888-888-777-----| 
C|-555------------------------------888-------------555-----------------|

Guitar 2
d|----------------------------------------------------------------------| 
A|----------------------------------------------------------------------| 
F|----------------------------------------------------------------------| 
C|-----------------555------------------------------555-----888-777-----|
G|-----555-777-888-----888-777-555------555-777-888-----888-------------| 
C|-000------------------------------888---------------------------------|

d|----------------------------------------------------------------------| 
A|----------------------------------------------------------------------| 
F|----------------------------------------------------------------------| 
C|---------555-777-888-777-555------------------------------------------|
G|-888-888---------------------888-----555-777-888-----888-888-777------| 
C|---------------------------------888-------------555------------------|

Both Guitars end with
d|-----------------| 
A|-----------------| 
F|-x-3-------------| 
C|-x-3--x-3--0-----|
G|-x-1--x-3--0-----| 
C|------x-3--0-----|

Repeat
Riff A
Riff B

Riff-C

Both Guitars
d|-----------------------------------------------------------| 
A|-----------------------------------------------------------| 
F|-----------------------------------------------------------| 
C|----------------------------------------------8-8-8--5-----| 
G|-----6p3---5----6p3---5---5p3-----3p1p0---1---8-8-8--5-----| 
C|-0-0-----0----0-----0---0-----0-0-------0-----8-8-8--5-----|
   . .     .    .     .   .     . .       .     . . .


Riff-D (The whole ending)

Both Guitars
d|------------------------| 
A|------------------------| 
F|------------------------| 
C|--------------0---------|
G|-5~-----------0---------| 
C|--------------0---------|

Both Guitars
d|------------------------| 
A|------------------------| 
F|------------------------| 
C|------------------0-----|
G|-3-----5~---------0-----| 
C|------------------0-----|

Guitar 1
d|----------------------------------------------------------------------| 
A|----------------------------------------------------------------------| 
F|----------------------------------------------------------------------| 
C|---------5---------------5----------------5---------------------------| X 1
G|---5-7-8---8-7-5---5-7-8---8-7-5----5-7-8---8-7-5---5-7-8---8-8-7-----| 
C|-0---------------8----------------5---------------8-------5-----------|

Guitar 2
d|----------------------------------------------------------------------| 
A|----------------------------------------------------------------------| 
F|----------------------------------------------------------------------| 
C|----------------------------------------------------------------------| X 1
G|-555-3-555-3-555-3-555-3-555-3-555-3-555-3-555-3-555-3----------------| 
C|----------------------------------------------------------------------|


Guitar 1
d|----------------------------------------| 
A|----------------------------------------| 
F|----------------------------------------| 
C|-0-0-0-0--8-8-8-8--5-5-5-5--8-8-5-5-----|
G|-0-0-0-0--8-8-8-8--5-5-5-5--8-8-5-5-----| 
C|-0-0-0-0--8-8-8-8--5-5-5-5--8-8-5-5-----|

Guitar 2
d|------------| 
A|------------| 
F|------------| 
C|-7-55-7-----| 
G|-5-33-5-----| 
C|------------|
Do this over guitar 1

Both Guitars
d|-----------------| 
A|-----------------| 
F|-----------------| X 3
C|-0-------5-------| 
G|-0-5-7-8---8-7-5-| 
C|-0---------------|

Both Guitars
d|-----------------| 
A|-----------------| 
F|-----------------| X 1
C|-0-------5~------| 
G|-0-5-7-8---------| 
C|-0---------------|

Guitar 1
d|------------------| 
A|------------------| 
F|------------------| 
C|-0---8---3---1----|
G|-0---8---3---1----| 
C|-0---8---3---1----|

Guitar 1 plays this till the end while 
guitar 2 plays variations of the main theme with heavy effects

End with

Guitar 1
d|---------| 
A|---------| 
F|---------| 
C|-0-------|
G|-0-------| 
C|-0-------|





Comments


Popular Darkest Hour tabs & chords
Legacy Bass Tabs
Reflections Of Ruin Bass Tabs
Aquetis Vertunis Tabs
Fire In The Sky Tabs
Hollow Intro Tabs
No God Intro 1 Tabs
Pay Phones And Pills (Intro) Tabs
Sanctuary Tabs
The Patriot Virus Tabs
Tranquil Tabs


Song lyrics



↑ Back to top | Tablatures and chords are parodies/interpretations of the original songs. You may use it for private study, scholarship, research or language learning purposes only
© 2014 AZChords.com Contact us | Privacy policy | DMCA | Add/correct tabs | Request tabs | Top 50 tabs