>
 >
Doomsayer 1

Doomsayer 1 Guitar Tabs

Darkest Hour - Doomsayer 1 chords, tabs, tablatures, lyrics

Guitar lessons | Add/correct | Request | Top 50 tabs Artists:  A B C D E F G H I J K L M N O P Q R S T U V W X Y Z 0-9

Doomsayer 1 Guitar Tabs – Darkest Hour

CD, Sheet music, Poster

Do you like Doomsayer 1? Share with your friends now
TabsTabs v2Tabs v3Tabs v4

This is an awesome song
and since there weren't any tabs, i decided to make one

yeah i know it's long
sorry
but it's all there


and please rate and comment


Update (2-17-08): updated the tapping in the solo. i saw them live and later a live 
and the guy taps a little descending arpeggio before the slow part in the middle of the solo 
i added that in. it's the same notes, just much easier to play tapped


Gtr I (C G C F A D) - 'Untitled'
Gtr II (C G C F A D) - 'Untitled'
Gtr III (C G C F A D) - 'Untitled'


    Q=132
    Gtr I
    E E E E +H        E E E E E E E E
||-----------------|------------------|
||o----------------|------------------|
||--------7-(7)----|------7-------7---|
||------0----------|----0---0---0---0-|
||o---0------------|------------------|
||--0--------------|-10-------8-------|
|
|   Gtr II
|   W                 W
||-----------------|------------------|
||o----------------|------------------|
||-----------------|------------------|
||-----------------|------------------|
||o----------------|------------------|
||-----------------|------------------|


                   1.                   2.
  E E E E +H        E E E E E E E E      E E E E E E E E
|----------------|-------------------||-----------------|
|----------------|------------------o||-----------------|
|-------7-(7)----|------7-------7----||------7-------7--|
|-----0----------|----0---0---0---0--||----0---0---0---0|
|---0------------|------------------o||-----------------|
|-0--------------|-10-------8--------||-10-------8------|
|
| W                 W                    E E E E E E E E
|----------------|-------------------||----------6---6--|
|----------------|------------------o||--8---8----------|
|----------------|-------------------||----7---7---7---7|
|----------------|-------------------||-----------------|
|----------------|------------------o||-----------------|
|----------------|-------------------||-----------------|


    E E E E +H           E E E E E E E E
||--------------------|------------------|
||o-------------------|------------------|
||--------7-(7)-------|------7-------7---|
||------0-------------|----0---0---0---0-|
||o---0---------------|------------------|
||--0-----------------|-10-------8-------|
|
|   E E E E  E  E E E    E E E E E E E E
||--5-----------------|----------6---6---|
||o-6---6----6----6---|--8---8-----------|
||--7-7---7-----7---7-|----7---7---7---7-|
||--------------------|------------------|
||o-------------------|------------------|
||--------------------|------------------|


                      1.                   2.
                                           PM------------|
  E E E E +H           E E E E E E E E     E E E E E E E E
|-------------------|-------------------||-------------------|
|-------------------|------------------o||-------------------|
|-------7-(7)-------|------7-------7----||-------------------|
|-----0-------------|----0---0---0---0--||-------------------|
|---0---------------|------------------o||-5-5-5-5-7-7-7-7---|
|-0-----------------|-10-------8--------||-5-5-5-5-7-7-7-7---|
|
|                                          PM------------|
| E E E E  E  E E E    E E E E E E E E     E E E E E E E E
|-5-----------------|----------6---6----||-------------------|
|-6---6----6----6---|--8---8-----------o||-------------------|
|-7-7---7-----7---7-|----7---7---7---7--||-------------------|
|-------------------|-------------------||-------------------|
|-------------------|------------------o||-5-5-5-5-7-7-7-7---|
|-------------------|-------------------||-5-5-5-5-7-7-7-7---|


  W
|------|
|------|
|------|
|------|
|------|
|------|
|
| W
|------|
|------|
|------|
|------|
|------|
|------|


    Q  E Q  E Q     E  E  E  E E E  E E   Q  E Q  E Q     E  E  E  E E E  E E
||---------------|----------------------|--------------|---------------------|
||o--------------|----------------------|--------------|---------------------|
||-------7----7--|----------------------|------7----7--|---------------------|
||-------0----0--|-------12--------12---|------0----0--|-------12--------12--|
||o-0--0-0--0-0--|-10-10-10-10-8-8--8-8-|-0--0-0--0-0--|-10-10-10-10-8-8--8-8|
||--0--0-0--0-0--|-10-10-10-10-8-8--8-8-|-0--0-0--0-0--|-10-10-10-10-8-8--8-8|
|
|   Q  E Q  E Q     E  E  E  E E E  E E   Q  E Q  E Q     E  E  E  E E E  E E
||---------------|----------------------|--------------|---------------------|
||o--------------|----------------------|--------------|---------------------|
||-------7----7--|----------------------|------7----7--|---------------------|
||-------0----0--|-------12--------12---|------0----0--|-------12--------12--|
||o-0--0-0--0-0--|-10-10-10-10-8-8--8-8-|-0--0-0--0-0--|-10-10-10-10-8-8--8-8|
||--0--0-0--0-0--|-10-10-10-10-8-8--8-8-|-0--0-0--0-0--|-10-10-10-10-8-8--8-8|


  Q  E   Q  E Q     E  E  E  E E E  E E   Q  E Q  E Q
|----------------|----------------------|--------------|
|----------------|----------------------|--------------|
|------/10--9-9--|----------------------|------7----7--|
|----------------|-------12--------12---|------0----0--|
|-0--0-----------|-10-10-10-10-8-8--8-8-|-0--0-0--0-0--|
|-0--0-----------|-10-10-10-10-8-8--8-8-|-0--0-0--0-0--|
|
| Q  E   Q  E Q     E  E  E  E E E  E E   Q  E Q  E Q
|----------------|----------------------|--------------|
|----------------|----------------------|--------------|
|--------7----7--|----------------------|------7----7--|
|--------0----0--|-------12--------12---|------0----0--|
|-0--0---0--0-0--|-10-10-10-10-8-8--8-8-|-0--0-0--0-0--|
|-0--0---0--0-0--|-10-10-10-10-8-8--8-8-|-0--0-0--0-0--|


  1.                      2.
                          PM------------|
  E E  E  E E E  E  E     E E E E E E E E
|----------------------||-----------------|
|---------------------o||-----------------|
|------7---------7-----||-----------------|
|----------------------||-----------------|
|-5-5-(5)-5-7-7-(7)-7-o||-5-5-5-5-7-7-7-7-|
|-5-5-(5)-5-7-7-(7)-7--||-5-5-5-5-7-7-7-7-|
|
|                         PM------------|
| E E  E  E E E  E  E     E E E E E E E E
|----------------------||-----------------|
|---------------------o||-----------------|
|------7---------7-----||-----------------|
|----------------------||-----------------|
|-5-5-(5)-5-7-7-(7)-7-o||-5-5-5-5-7-7-7-7-|
|-5-5-(5)-5-7-7-(7)-7--||-5-5-5-5-7-7-7-7-|


    S  S  S  S  S S  S  S S  S S S  S S  S  S
||--------------------------------------------|
||o-------------------------------------------|
||--------------7-----------------------------|
||--0--7-10--7----0--7-12-0-12-0-0-10-0--8-10-|
||o-------------------------------------------|
||--------------------------------------------|
|
|   S  S  S  S  S S  S  S S  S S S  S S  S  S
||--------------------------------------------|
||o-------------------------------------------|
||--------------------------------------------|
||--0-10-14-10-15-0-12-15-0-15-0-0-14-0-14-15-|
||o-------------------------------------------|
||--------------------------------------------|


  S  S  S  S  S S S  S S  S S S S S S S
|----------------------------------------|
|----------------------------------------|
|-------------7--------------------------|
|-0--7-10--7----0-0--7-0--7-0-0-5-0------|
|-----------------------------------7-8--|
|----------------------------------------|
|
| S  S  S  S  S S S  S S  S S S S S S S
|----------------------------------------|
|----------------------------------------|
|----------------------------------------|
|-0-10-14-10-15-0-0-10-0-10-0-0-8-0-5-7--|
|----------------------------------------|
|----------------------------------------|


  S  S  S  S  S S  S  S S  S S S  S S  S  S
|-------------------------------------------|
|-------------------------------------------|
|-------------7-----------------------------|
|-0--7-10--7----0--7-12-0-12-0-0-10-0--8-10-|
|-------------------------------------------|
|-------------------------------------------|
|
| S  S  S  S  S S  S  S S  S S S  S S  S  S
|-------------------------------------------|
|-------------------------------------------|
|-------------------------------------------|
|-0-10-14-10-15-0-12-15-0-15-0-0-14-0-14-15-|
|-------------------------------------------|
|-------------------------------------------|


  1.
  S S S S S S S S  S S S  S S  S S S
|---------------------------------------||
|--------------------------------------o||
|---------------------------------------||
|-8-7-5-------5-7-10-8-7---------7-8----||
|-------8-7-8------------10-8-10-------o||
|---------------------------------------||
|
| H                H
|---------------------------------------||
|--------------------------------------o||
|---------------------------------------||
|---------------------------------------||
|-5----------------7-------------------o||
|-5----------------7--------------------||


  2.
  S S S S S S S S  S S S  S S  S S S
|------------------------------------|
|------------------------------------|
|------------------------------------|
|-8-7-5-------5-7-10-8-7---------7-8-|
|-------8-7-8------------10-8-10-----|
|------------------------------------|
|
| H                H
|------------------------------------|
|------------------------------------|
|------------------------------------|
|------------------------------------|
|-5----------------7-----------------|
|-5----------------7-----------------|


   S  S  S  S  S  S  S  S  S  S  S  S  S  S  S  S
|---------------------------------------------------|
|---------------------------------------------------|
|---------------------------------------------------|
|-12-10----------------10-12-11----------------11---|
|-------13-12-10-12-13----------13-12-10-12-13------|
|---------------------------------------------------|
|
|  H                       H
|---------------------------------------------------|
|---------------------------------------------------|
|---------------------------------------------------|
|---------------------------------------------------|
|-10----------------------11------------------------|
|-10----------------------11------------------------|


  Q  E Q  E Q     E  E  E  E E E  E E   Q  E Q  E Q     E  E  E  E E E  E E
|--------------|----------------------|--------------|----------------------|
|--------------|----------------------|--------------|----------------------|
|------7----7--|----------------------|------7----7--|----------------------|
|------0----0--|-------12--------12---|------0----0--|-------12--------12---|
|-0--0-0--0-0--|-10-10-10-10-8-8--8-8-|-0--0-0--0-0--|-10-10-10-10-8-8--8-8-|
|-0--0-0--0-0--|-10-10-10-10-8-8--8-8-|-0--0-0--0-0--|-10-10-10-10-8-8--8-8-|
|
| Q  E Q  E Q     E  E  E  E E E  E E   Q  E Q  E Q     E  E  E  E E E  E E
|--------------|----------------------|--------------|----------------------|
|--------------|----------------------|--------------|----------------------|
|------7----7--|----------------------|------7----7--|----------------------|
|------0----0--|-------12--------12---|------0----0--|-------12--------12---|
|-0--0-0--0-0--|-10-10-10-10-8-8--8-8-|-0--0-0--0-0--|-10-10-10-10-8-8--8-8-|
|-0--0-0--0-0--|-10-10-10-10-8-8--8-8-|-0--0-0--0-0--|-10-10-10-10-8-8--8-8-|


                                                         PM--------|   PM|
  Q  E   Q  E Q     E  E  E  E E E  E E   Q  E Q  E Q    E E E E S S E S S E
|----------------|----------------------|--------------|---------------------|
|----------------|----------------------|--------------|---------------------|
|------/10--9-9--|----------------------|------7----7--|---------------------|
|----------------|-------12--------12---|------0----0--|---------------------|
|-0--0-----------|-10-10-10-10-8-8--8-8-|-0--0-0--0-0--|-5-5-5-5-7-7---7-7---|
|-0--0-----------|-10-10-10-10-8-8--8-8-|-0--0-0--0-0--|-5-5-5-5-7-7---7-7---|
|
|                                                        PM--------|   PM|
| Q  E   Q  E Q     E  E  E  E E E  E E   Q  E Q  E Q    E E E E S S E S S
|----------------|----------------------|--------------|---------------------|
|----------------|----------------------|--------------|---------------------|
|--------7----7--|----------------------|------7----7--|---------------------|
|--------0----0--|-------12--------12---|------0----0--|---------------------|
|-0--0---0--0-0--|-10-10-10-10-8-8--8-8-|-0--0-0--0-0--|-5-5-5-5-7-7---7-7---|
|-0--0---0--0-0--|-10-10-10-10-8-8--8-8-|-0--0-0--0-0--|-5-5-5-5-7-7---7-7---|


    S  S  S  S  S S  S  S S  S S S  S S  S  S
||--------------------------------------------|
||o-------------------------------------------|
||--------------7-----------------------------|
||--0--7-10--7----0--7-12-0-12-0-0-10-0--8-10-|
||o-------------------------------------------|
||--------------------------------------------|
|
|   S  S  S  S  S S  S  S S  S S S  S S  S  S
||--------------------------------------------|
||o-------------------------------------------|
||--------------------------------------------|
||--0-10-14-10-15-0-12-15-0-15-0-0-14-0-14-15-|
||o-------------------------------------------|
||--------------------------------------------|


  S  S  S  S  S S S  S S  S S S S S S S
|----------------------------------------|
|----------------------------------------|
|-------------7--------------------------|
|-0--7-10--7----0-0--7-0--7-0-0-5-0------|
|-----------------------------------7-8--|
|----------------------------------------|
|
| S  S  S  S  S S S  S S  S S S S S S S
|----------------------------------------|
|----------------------------------------|
|----------------------------------------|
|-0-10-14-10-15-0-0-10-0-10-0-0-8-0-5-7--|
|----------------------------------------|
|----------------------------------------|


  S  S  S  S  S S  S  S S  S S S  S S  S  S
|-------------------------------------------|
|-------------------------------------------|
|-------------7-----------------------------|
|-0--7-10--7----0--7-12-0-12-0-0-10-0--8-10-|
|-------------------------------------------|
|-------------------------------------------|
|
| S  S  S  S  S S  S  S S  S S S  S S  S  S
|-------------------------------------------|
|-------------------------------------------|
|-------------------------------------------|
|-0-10-14-10-15-0-12-15-0-15-0-0-14-0-14-15-|
|-------------------------------------------|
|-------------------------------------------|


  1.
  S S S S S S S S  S S S  S S  S S S
|---------------------------------------||
|--------------------------------------o||
|---------------------------------------||
|-8-7-5-------5-7-10-8-7---------7-8----||
|-------8-7-8------------10-8-10-------o||
|---------------------------------------||
|
| H                H
|---------------------------------------||
|--------------------------------------o||
|---------------------------------------||
|---------------------------------------||
|-5----------------7-------------------o||
|-5----------------7--------------------||


  2.
  S S S S S S S S  S S S  S S  S S S
|------------------------------------|
|------------------------------------|
|------------------------------------|
|-8-7-5-------5-7-10-8-7---------7-8-|
|-------8-7-8------------10-8-10-----|
|------------------------------------|
|
| H                H
|------------------------------------|
|------------------------------------|
|------------------------------------|
|------------------------------------|
|-5----------------7-----------------|
|-5----------------7-----------------|


  S S  S S  S S  S S  S S  S S  S S  S S
|------------------------------------------|
|------------------------------------------|
|------------------------------------------|
|-5p0--7p0--8p0--7p0--8p0--7p0-10p0-12p0---|
|------------------------------------------|
|------------------------------------------|
|
| S S  S S  S S  S S  S S  S S  S S  S S
|------------------------------------------|
|------------------------------------------|
|------------------------------------------|
|-8p0-10p0-12p0-10p0-12p0-10p0-14p0-15p0---|
|------------------------------------------|
|------------------------------------------|


    S S S S  S S S S S S S S  S S S S   S S S S S S S S S S S S S S S S
||------------------------------------|----------------------------------|
||o-----------------------------------|----------------------------------|
||------------------------------------|----------------------------------|
||--7p0-8p0-10p0-8p0-7p0-8p0-10p0-8p0-|-2p0-3p0-5p0-3p0-2p0-3p0-5p0-3p0--|
||o-----------------------------------|----------------------------------|
||------------------------------------|----------------------------------|
|
|   PM----------------------------------------------------------------|
|   S S S S  S S S S S S S S  S S S S   S S S S S S S S S S S S S S S S
||------------------------------------|----------------------------------|
||o-----------------------------------|----------------------------------|
||------------------------------------|----------------------------------|
||------------------------------------|----------------------------------|
||o-----------------------------------|----------------------------------|
||--5-5-5-5--5-5-5-5-5-5-5-5--5-5-5-5-|-8-8-8-8-8-8-8-8-8-8-8-8-8-8-8-8--|


   S  S  S  S  S  S  S  S  E     E     E     E
|-------------------------------------------------|
|-------------------------------------------------|
|--------------------------------------3-----2----|
|--2p=0--3p=0--5p=0--3p=0--2-----0----------------|
|-------------------------------------------------|
|-------------------------------------------------|
|
|  PM----------------------------------------------
|  S  S  S  S  S  S  S  S  S  S  S  S  S  S  S  S
|-------------------------------------------------|
|-------------------------------------------------|
|-------------------------------------------------|
|-------------------------------------------------|
|-------------------------------------------------|
|-10-10-10-10-10-10-10-10-11-11-11-11-11-11-11-11-|


  1.
   S S  S S  S S  S S  S S  S S  S S  S S
|------------------------------------------||--|
|-----------------------------------------o||--|
|------------------------------------------||--|
|-12p0-14p0-15p0-14p0-15p0-14p0-12p0-14p0--||--|
|-----------------------------------------o||--|
|------------------------------------------||--|
|
|---------------------------------------|
|  S S  S S  S S  S S  S S  S S  S S  S S
|------------------------------------------||--|
|-----------------------------------------o||--|
|------------------------------------------||--|
|------------------------------------------||--|
|-----------------------------------------o||--|
|--0-0--0-0--0-0--0-0--0-0--0-0--0-0--0-0--||--|


  2.
  Q  E Q  E Q     E  E  E  E E E  E E   Q  E Q  E Q     E  E  E  E E E  E E
|--------------|----------------------|--------------|----------------------|
|--------------|----------------------|--------------|----------------------|
|------7----7--|----------------------|------7----7--|----------------------|
|------0----0--|-------12--------12---|------0----0--|-------12--------12---|
|-0--0-0--0-0--|-10-10-10-10-8-8--8-8-|-0--0-0--0-0--|-10-10-10-10-8-8--8-8-|
|-0--0-0--0-0--|-10-10-10-10-8-8--8-8-|-0--0-0--0-0--|-10-10-10-10-8-8--8-8-|
|
| Q  E Q  E Q     E  E  E  E E E  E E   Q  E Q  E Q     E  E  E  E E E  E E
|--------------|----------------------|--------------|----------------------|
|--------------|----------------------|--------------|----------------------|
|------7----7--|----------------------|------7----7--|----------------------|
|------0----0--|-------12--------12---|------0----0--|-------12--------12---|
|-0--0-0--0-0--|-10-10-10-10-8-8--8-8-|-0--0-0--0-0--|-10-10-10-10-8-8--8-8-|
|-0--0-0--0-0--|-10-10-10-10-8-8--8-8-|-0--0-0--0-0--|-10-10-10-10-8-8--8-8-|


  Q  E   Q  E Q     E  E  E  E E E  E E   Q  E Q  E Q    E E  E  E E E  E  E
|----------------|----------------------|--------------|---------------------|
|----------------|----------------------|--------------|---------------------|
|------/10--9-9--|----------------------|------7----7--|------7---------7----|
|----------------|-------12--------12---|------0----0--|---------------------|
|-0--0-----------|-10-10-10-10-8-8--8-8-|-0--0-0--0-0--|-5-5-(5)-5-7-7-(7)-7-|
|-0--0-----------|-10-10-10-10-8-8--8-8-|-0--0-0--0-0--|-5-5-(5)-5-7-7-(7)-7-|
|
| Q  E   Q  E Q     E  E  E  E E E  E E   Q  E Q  E Q    E E  E  E E E  E  E
|----------------|----------------------|--------------|---------------------|
|----------------|----------------------|--------------|---------------------|
|--------7----7--|----------------------|------7----7--|------7---------7----|
|--------0----0--|-------12--------12---|------0----0--|---------------------|
|-0--0---0--0-0--|-10-10-10-10-8-8--8-8-|-0--0-0--0-0--|-5-5-(5)-5-7-7-(7)-7-|
|-0--0---0--0-0--|-10-10-10-10-8-8--8-8-|-0--0-0--0-0--|-5-5-(5)-5-7-7-(7)-7-|


  S S S S S S S S S S S S S S S S    S  S  S  S  S  S  S  S S S S S S S S S
|---------------------------------|-------------------------------------------|
|---------------------------------|-------------------------------------------|
|---------------------------------|-------------------------------------------|
|-0-0-0-0-0-0-0-0-0-0-0-0-0-0-0-0-|--5--5--3--3--2--2--3--3-3-3-2-2-0-0-3-3---|
|---------------------------------|-------------------------------------------|
|---------------------------------|-------------------------------------------|
|
| PM----------------------------------------------------------------------|
| S S S S S S S S S S S S S S S S    S  S  S  S  S  S  S  S S S S S S S S S
|---------------------------------|-------------------------------------------|
|---------------------------------|-------------------------------------------|
|---------------------------------|-------------------------------------------|
|---------------------------------|-------------------------------------------|
|---------------------------------|-------------------------------------------|
|-0-0-0-0-0-0-0-0-0-0-0-0-0-0-0-0-|-10-10-10-10-10-10-10-10-8-8-8-8-8-8-8-8---|


  S S S S S S S S S S S S S S S S    S  S S S S S S S S S S S S S S S
|---------------------------------|-------------------------------------|
|---------------------------------|-------------------------------------|
|---------------------------------|-------------------------------------|
|-0-0-0-0-0-0-0-0-0-0-0-0-0-0-0-0-|-10-10-8-8-7-7-8-8-8-8-7-7-5-5-8-8---|
|---------------------------------|-------------------------------------|
|---------------------------------|-------------------------------------|
|
| PM----------------------------------------------------------------|
| S S S S S S S S S S S S S S S S    S  S S S S S S S S S S S S S S S
|---------------------------------|-------------------------------------|
|---------------------------------|-------------------------------------|
|---------------------------------|-------------------------------------|
|---------------------------------|-------------------------------------|
|---------------------------------|-------------------------------------|
|-0-0-0-0-0-0-0-0-0-0-0-0-0-0-0-0-|--5--5-5-5-5-5-5-5-8-8-8-8-8-8-8-8---|


  S S S S S S S S S S S S S S S S    S  S  S  S  S  S  S  S S S S S S S S S
|---------------------------------|-------------------------------------------|
|---------------------------------|-------------------------------------------|
|---------------------------------|-------------------------------------------|
|-7-7-7-7-7-7-7-7-7-7-7-7-7-7-7-7-|--5--5--3--3--2--2--5--5-3-3-5-5-3-3-2-2---|
|---------------------------------|-------------------------------------------|
|---------------------------------|-------------------------------------------|
|
| PM----------------------------------------------------------------------|
| S S S S S S S S S S S S S S S S    S  S  S  S  S  S  S  S S S S S S S S S
|---------------------------------|-------------------------------------------|
|---------------------------------|-------------------------------------------|
|---------------------------------|-------------------------------------------|
|---------------------------------|-------------------------------------------|
|---------------------------------|-------------------------------------------|
|-0-0-0-0-0-0-0-0-0-0-0-0-0-0-0-0-|-10-10-10-10-10-10-10-10-8-8-8-8-8-8-8-8---|


  S S S S S S S S S S S S S S S S   H    H
|---------------------------------|-----------|
|---------------------------------|-----------|
|---------------------------------|-----------|
|-0-0-0-0-0-0-0-0-0-0-0-0-0-0-2-2-|-3----2----|
|---------------------------------|-----------|
|---------------------------------|-----------|
|
| PM----------------------------|
| S S S S S S S S S S S S S S S S   H    H
|---------------------------------|-----------|
|---------------------------------|-----------|
|---------------------------------|-----------|
|---------------------------------|-----------|
|---------------------------------|-----------|
|-0-0-0-0-0-0-0-0-0-0-0-0-0-0-0-0-|-5----7----|


    PM--------|    PM----|    PM--------------|    PM----|    PM|
    S S S S S S E  S S S S E  S S   S S S S S S E  S S S S E  S S
||--------------------------------|--------------------------------|
||o-------------------------------|--------------------------------|
||--------------------------------|--------------------------------|
||--------------5----------5------|-------------4----------4-------|
||o-------------------------------|--------------------------------|
||--2-2-2-2-2-2----2-2-2-2----2-2-|-5-5-5-5-5-5----5-5-5-5----5-5--|
|
|   W                               W
||--------------------------------|--------------------------------|
||o-------------------------------|--------------------------------|
||--------------------------------|--------------------------------|
||--------------------------------|--------------------------------|
||o-------------------------------|--------------------------------|
||--2-----------------------------|-5------------------------------|


                                1.                                2.
  PM--------|   PM----|   PM----------------|   PM----|   PM|
  S S S S S S E S S S S E S S    S  S S S S S E S S S S E S S     Q.   E H
|-----------------------------|--------------------------------||-------------|
|-----------------------------|-------------------------------o||-------------|
|-----------------------------|--------------------------------||-------------|
|-------------4---------4-----|---------------2---------2------||-4----2-2----|
|-----------------------------|-------------------------------o||-------------|
|-0-0-0-0-0-0---0-0-0-0---0-0-|--0--0-0-0-0-0---0-0-0-0---0-0--||-------------|
|
| W                             +W                                Q.   E H
|-----------------------------|--------------------------------||-------------|
|-----------------------------|-------------------------------o||-------------|
|-----------------------------|--------------------------------||-------------|
|-----------------------------|--------------------------------||-------------|
|-----------------------------|-------------------------------o||-------------|
|-0---------------------------|-(0)----------------------------||-0----0-0----|


  PM--------|   PM----|   PM--------------|   PM----|   PM|
  S S S S S S E S S S S E S S   S S S S S S E S S S S E S S
|-----------------------------|--------------------------------|
|-----------------------------|--------------------------------|
|-----------------------------|--------------------------------|
|-------------5---------5-----|-------------4---------4--------|
|-----------------------------|--------------------------------|
|-2-2-2-2-2-2---2-2-2-2---2-2-|-5-5-5-5-5-5---5-5-5-5---5-5----|
|
| PM--------|   PM----|   PM--------------|   PM----|   PM|
| S S S S S S E S S S S E S S   S S S S S S E S S S S E S S
|-----------------------------|--------------------------------|
|-----------------------------|--------------------------------|
|-----------------------------|--------------------------------|
|-------------5---------5-----|-------------4---------4--------|
|-----------------------------|--------------------------------|
|-2-2-2-2-2-2---2-2-2-2---2-2-|-5-5-5-5-5-5---5-5-5-5---5-5----|


  PM--------|   PM----|   PM--------------|   PM----|   PM|
  S S S S S S E S S S S E S S   S S S S S S E S S S S E S S
|-----------------------------|--------------------------------|
|-----------------------------|--------------------------------|
|-----------------------------|--------------------------------|
|-------------4---------4-----|-------------2---------2--------|
|-----------------------------|--------------------------------|
|-0-0-0-0-0-0---0-0-0-0---0-0-|-0-0-0-0-0-0---0-0-0-0---0-0----|
|
| PM--------|   PM----|   PM--------------|   PM----|   PM|
| S S S S S S E S S S S E S S   S S S S S S E S S S S E S S
|-----------------------------|--------------------------------|
|-----------------------------|--------------------------------|
|-----------------------------|--------------------------------|
|-------------4---------4-----|-------------2---------2--------|
|-----------------------------|--------------------------------|
|-0-0-0-0-0-0---0-0-0-0---0-0-|-0-0-0-0-0-0---0-0-0-0---0-0----|


  PM--------|   PM----|   PM--------------|   PM----|   PM|
  S S S S S S E S S S S E S S   S S S S S S E S S S S E S S
|-----------------------------|--------------------------------|
|-----------------------------|--------------------------------|
|-----------------------------|--------------------------------|
|-------------5---------5-----|-------------4---------4--------|
|-----------------------------|--------------------------------|
|-2-2-2-2-2-2---2-2-2-2---2-2-|-5-5-5-5-5-5---5-5-5-5---5-5----|
|
| PM--------|   PM----|   PM--------------|   PM----|   PM|
| S S S S S S E S S S S E S S   S S S S S S E S S S S E S S
|-----------------------------|--------------------------------|
|-----------------------------|--------------------------------|
|-------------4---------4-----|--------------------------------|
|-----------------------------|-------------7---------7--------|
|-----------------------------|--------------------------------|
|-2-2-2-2-2-2---2-2-2-2---2-2-|-5-5-5-5-5-5---5-5-5-5---5-5----|


  PM--------|   PM----|   PM|
  S S S S S S E S S S S E S S   Q.   E Q  Q
|-----------------------------|----------------|
|-----------------------------|----------------|
|-----------------------------|----------------|
|-------------4---------4-----|-4----5-5--4----|
|-----------------------------|----------------|
|-0-0-0-0-0-0---0-0-0-0---0-0-|----------------|
|
| PM--------|   PM----|   PM|
| S S S S S S E S S S S E S S   Q.   E Q  Q
|-----------------------------|----------------|
|-----------------------------|----------------|
|-----------------------------|----------------|
|-------------7---------7-----|-7----9-9--7----|
|-----------------------------|----------------|
|-0-0-0-0-0-0---0-0-0-0---0-0-|----------------|


  S S  S  S S S  S  S  S  S  S  S E E
|---------------------12----------------|
|------------------------12-------------|
|-------------9-11-12-------12-11-9-----|
|-----------9-----------------------9---|
|-7-9-10-12-----------------------------|
|---------------------------------------|
|
| PM----------|        PM------|    PM---
| S S  S  S S S  E     S  S  S  S E S S
|---------------------------------------|
|---------------------------------------|
|---------------------------------------|
|----------------5----------------5-----|
|---------------------------------------|
|-2-2--2--2-2-2--------2--2--2--2---2-2-|


  S S  S  S S S  S  S  S  S  S  S  S  S  S  S
|---------------------14----15----17----14-------|
|------------------------12----12----12----12----|
|-------------9-11-12----------------------------|
|-----------9------------------------------------|
|-7-9-10-12--------------------------------------|
|------------------------------------------------|
|
|-------------|        PM------|      PM|
| S S  S  S S S  E     S  S  S  S  E  S  S
|------------------------------------------------|
|------------------------------------------------|
|------------------------------------------------|
|----------------4-----------------4-------------|
|------------------------------------------------|
|-5-5--5--5-5-5--------5--5--5--5-----5--5-------|

   T           T     T     T        T        T
   S  S  S  S  S  S  S  S  S  S  S  S  S  S  S  S
|-22-17-14-17-------------------------------------|
|-------------19-15-19-15-19-15-------------------|
|-------------------------------14-19-14----------|
|----------------------------------------16-19-16-|
|-------------------------------------------------|
|-------------------------------------------------|
|
|  PM------------|         PM------|         PM----
|  S  S  S  S  S  S  E     S  S  S  S  E     S  S
|-------------------------------------------------|
|-------------------------------------------------|
|-------------------------------------------------|
|--------------------4-----------------4----------|
|-------------------------------------------------|
|--0--0--0--0--0--0--------0--0--0--0--------0--0-|


   Q        E    E   +H
|-15-------14---------------------------|
|---------------15--(15)----------------|
|---------------------------------------|
|---------------------------------------|
|---------------------------------------|
|---------------------------------------|
|
|-------------|       PM-----|   PM|
|  S S S S  S S  E    S  S S S E S S
|---------------------------------------|
|---------------------------------------|
|---------------------------------------|
|----------------2-------------2--------|
|---------------------------------------|
|--0-0-0-0--0-0-------0--0-0-0---0-0----|


   Q        E    H             E      +E     E    E    H             E
|----------------------------------|----------------------------------------|
|---------------15------------20---|-(20)---19---20-------------------------|
|----------------------------------|----------------------------------------|
|-14-------17----------------------|------------------17------------16------|
|----------------------------------|----------------------------------------|
|----------------------------------|----------------------------------------|
|
|  PM---------|     PM----|    PM-------------------|     PM----|    PM|
|  S S S S  S S  E  S S S S E  S S     S  S  S S  S S  E  S S S S E  S S
|----------------------------------|----------------------------------------|
|----------------------------------|----------------------------------------|
|----------------------------------|----------------------------------------|
|----------------5----------5------|-------------------4----------4---------|
|----------------------------------|----------------------------------------|
|--2-2-2-2--2-2-----2-2-2-2----2-2-|---5--5--5-5--5-5-----5-5-5-5----5-5----|


   +Q         E    H             E      E    E    E    E   +H
|------------------------------------|----------------------------------------|
|-----------------19-----------------|----------------------------------------|
|------------14----------------------|----------------------------------------|
|-(16)--------------------------17---|-17---16---19---17--(17)----------------|
|------------------------------------|----------------------------------------|
|------------------------------------|----------------------------------------|
|
|   PM----------|     PM----|    PM-----------------|       PM-----|   PM|
|   S  S S S  S S  E  S S S S E  S S    S S  S S  S S  E    S  S S S E S S
|------------------------------------|----------------------------------------|
|------------------------------------|----------------------------------------|
|------------------------------------|----------------------------------------|
|------------------4----------4------|-----------------2-------------2--------|
|------------------------------------|----------------------------------------|
|---0--0-0-0--0-0-----0-0-0-0----0-0-|--0-0--0-0--0-0-------0--0-0-0---0-0----|


   S  S  S  S  S  S  S  S  S  S  S  S  S  S  S  S
|-15----------------------15----------------------|
|----17----------------17----17----------------17-|
|-------16----------16----------16----------16----|
|----------17----17----------------17----17-------|
|-------------19----------------------19----------|
|-------------------------------------------------|
|
|  PM------------|         PM------|         PM----
|  S  S  S  S  S  S  E     S  S  S  S  E     S  S
|-------------------------------------------------|
|-------------------------------------------------|
|-------------------------------------------------|
|--------------------5-----------------5----------|
|-------------------------------------------------|
|--2--2--2--2--2--2--------2--2--2--2--------2--2-|


   S  S  S  S  S  S  S  S  S  S  S  S  S  S  S  S
|-19-15----------------15-19-15----------------15---|
|-------17----------17----------17----------17------|
|----------16----16----------------16----16---------|
|-------------17----------------------17------------|
|---------------------------------------------------|
|---------------------------------------------------|
|
|----------------|      PM------|      PM|
|  S  S  S  S  S  S  E  S  S  S  S  E  S  S
|---------------------------------------------------|
|---------------------------------------------------|
|---------------------------------------------------|
|--------------------4--------------4---------------|
|---------------------------------------------------|
|--5--5--5--5--5--5-----5--5--5--5-----5--5---------|


   S  S  S  S  S  S  S  S  S  S  S  S  S  S  S  S
|-14----------------------14----------------------|
|----15----------------15----15----------------15-|
|-------14----------14----------14----------14----|
|----------16----16----------------16----16-------|
|-------------17----------------------17----------|
|-------------------------------------------------|
|
|  PM------------|         PM------|         PM----
|  S  S  S  S  S  S  E     S  S  S  S  E     S  S
|-------------------------------------------------|
|-------------------------------------------------|
|-------------------------------------------------|
|--------------------7-----------------7----------|
|-------------------------------------------------|
|--0--0--0--0--0--0--------0--0--0--0--------0--0-|


   T     T     T     T     T     T     T     T
   |--3--|     |--3--|     |--3--|     |--3--|
   S  S  S  E  S  S  S  E  S  S  S  E  S  S  S  E
|---------------------------------------------------|
|-19-15-19-15-20-15-20-15-19-15-19-15-17-15-17-15---|
|---------------------------------------------------|
|---------------------------------------------------|
|---------------------------------------------------|
|---------------------------------------------------|
|
|----------------|         PM------|         PM|
|  S  S  S  S  S  S  E     S  S  S  S  E     S  S
|---------------------------------------------------|
|---------------------------------------------------|
|---------------------------------------------------|
|--------------------2-----------------2------------|
|---------------------------------------------------|
|--0--0--0--0--0--0--------0--0--0--0--------0--0---|


   S  S  S  S  S  S  S  S  S  S  S  S  S  S  S  S
|-12----------------------15-14-12-------------12-|
|----12----------------12----------12-------12----|
|-------12----------12-------------------12-------|
|----------14----14-------------------14----------|
|-------------14----------------------------------|
|-------------------------------------------------|
|
|  PM------------|         PM------|         PM----
|  S  S  S  S  S  S  E     S  S  S  S  E     S  S
|-------------------------------------------------|
|-------------------------------------------------|
|-------------------------------------------------|
|--------------------5-----------------5----------|
|-------------------------------------------------|
|--2--2--2--2--2--2--------2--2--2--2--------2--2-|
|
| Gtr III
|  S  S  S  S  S  S  S  S  S  S  S  S  S  S  S  S
|--8----------------------12-10--8--------------8-|
|-----8-----------------8-----------8--------8----|
|--------9-----------9--------------------9-------|
|----------10----10-------------------10----------|
|-------------10----------------------------------|
|-------------------------------------------------|


                           |--3--|  |--3--|  |--3--|  |--3--|
   S  S  S  S  S  S  S  S  S  S  S  S  S  S  S  S  S  S  S  S
|-19-15----------------15-17-15-14-------------------------14-|
|-------17----------17-------------17-15-14-------------15----|
|----------16----16----------------------------------14-------|
|-------------17----------------------------14-16-17----------|
|-------------------------------------------------------------|
|-------------------------------------------------------------|
|
|----------------|         PM------|         PM|
|  S  S  S  S  S  S  E     S  S  S  S  E     S  S
|-------------------------------------------------------------|
|-------------------------------------------------------------|
|-------------------------------------------------------------|
|--------------------4-----------------4----------------------|
|-------------------------------------------------------------|
|--5--5--5--5--5--5--------5--5--5--5--------5--5-------------|
|
|                          |--3--|  |--3--|  |--3--|  |--3--|
|  S  S  S  S  S  S  S  S  S  S  S  S  S  S  S  S  S  S  S  S
|-15-12----------------15-14-12-10-------------------------10-|
|-------12----------12-------------14-12-10----------10-12----|
|----------12----12--------------------------9-11-12----------|
|-------------14----------------------------------------------|
|-------------------------------------------------------------|
|-------------------------------------------------------------|


   S  S  S  S  S  S  S  S  S  S  S  S  S  S  S  S
|-14----------------------14----15----14----------|
|----15----------------15----15----15----15-17-15-|
|-------14----------14----------------------------|
|----------16----16-------------------------------|
|-------------17----------------------------------|
|-------------------------------------------------|
|
|  PM------------|         PM------|         PM----
|  S  S  S  S  S  S  E     S  S  S  S  E     S  S
|-------------------------------------------------|
|-------------------------------------------------|
|-------------------------------------------------|
|--------------------4-----------------4----------|
|-------------------------------------------------|
|--0--0--0--0--0--0--------0--0--0--0--------0--0-|
|
|  S  S  S  S  S  S  S  S  S  S  S  S  S  S  S  S
|-10----------------------10----12----10----------|
|----10----------------10----12----12----12-14-12-|
|-------11----------11----------------------------|
|----------12----12-------------------------------|
|-------------12----------------------------------|
|-------------------------------------------------|


   S  S  S  S  S  S  S  S  S  S  S  S  S  S  S  S
|-17-14-------14------------------------------------|
|-------15-------15-------15------------------------|
|----------14-------14-------14-------14------------|
|----------------------16-------16-------16---------|
|----------------------------------17-------17-14---|
|---------------------------------------------------|
|
|----------------|      PM------|      PM|
|  S  S  S  S  S  S  E  S  S  S  S  E  S  S
|---------------------------------------------------|
|---------------------------------------------------|
|---------------------------------------------------|
|--------------------2--------------2---------------|
|---------------------------------------------------|
|--0--0--0--0--0--0-----0--0--0--0-----0--0---------|
|
|  S  S  S  S  S  S  S  S  S  S  S  S  S  S  S  S
|-14-10-------10------------------------------------|
|-------10-------10-------10------------------------|
|----------11-------11-------11-------11------------|
|----------------------12-------12-------12---------|
|----------------------------------12-------12--9---|
|---------------------------------------------------|


   Q.      E  +H           Q.      E  +H
|-----------------------|-----------------------|
|-----------------------|-----------------------|
|-14------12-(12)-------|-12------11-(11)-------|
|-----------------------|-----------------------|
|-----------------------|-----------------------|
|-----------------------|-----------------------|
|
|  PM---|      PM-|   PM--------|      PM-|   PM-
|  E  E E  E   E  E E E    E  E E  E   E  E E E
|-----------------------|-----------------------|
|-----------------------|-----------------------|
|-----------------------|-----------------------|
|----------5--------5---|----------4--------4---|
|--2--2-2--2---2--2-2-2-|--5--5-5--5---5--5-5-5-|
|--2--2-2--2---2--2-2-2-|--5--5-5--5---5--5-5-5-|
|
|  Q.      E  +H           Q.      E  +H
|-----------------------|-----------------------|
|-----------------------|-----------------------|
|-11-------9--(9)-------|--9-------7--(7)-------|
|-----------------------|-----------------------|
|-----------------------|-----------------------|
|-----------------------|-----------------------|


                    |--3--|
   Q.      H        S  S  S    E  Q    E  +H
|-14------12----------------|-----------------------|
|---------------------------|-----------------------|
|------------------14-16-14-|-12-14---16-(16)-------|
|---------------------------|-----------------------|
|---------------------------|-----------------------|
|---------------------------|-----------------------|
|
|-------|    PM|    PM--------------|      PM-|   PM
|  E  E E  E E E E  E          E  E E  E   E  E E E
|---------------------------|-----------------------|
|---------------------------|-----------------------|
|---------------------------|-----------------------|
|----------4-----4----------|----------2--------2---|
|--0--0-0--0-0-0-0--0-------|--0--0-0--0---0--0-0-0-|
|--0--0-0--0-0-0-0--0-------|--0--0-0--0---0--0-0-0-|
|
|                   |--3--|
|  Q.      H        S  S  S    E  Q    E  +H
|---------------------------|-----------------------|
|---------------------------|-----------------------|
|-14------12-------11-12-11-|--9-11---12-(12)-------|
|---------------------------|-----------------------|
|---------------------------|-----------------------|
|---------------------------|-----------------------|


   Q    E  H        E    +E   E  E  H        E
|---------------------|------------------------|
|---------15-------20-|-(20)-19-20-------------|
|---------------------|------------------------|
|-14---17-------------|------------17-------16-|
|---------------------|------------------------|
|---------------------|------------------------|
|
|  PM--|     PM|    PM----------|     PM|    PM-
|  E E  E  E E E E  E     E   E  E  E E E E  E
|---------------------|------------------------|
|---------------------|------------------------|
|---------------------|------------------------|
|----------5-----5----|-------------4-----4----|
|--2-2--2--2-2-2-2--2-|---5---5--5--5-5-5-5--5-|
|--2-2--2--2-2-2-2--2-|---5---5--5--5-5-5-5--5-|
|
|  >
|  W                     +W
|---------------------|------------------------|
|---------------------|------------------------|
|-12------------------|-(12)-------------------|
|---------------------|------------------------|
|---------------------|------------------------|
|---------------------|------------------------|


   +Q     E  H        E    E  E  E  E  +H
|-----------------------|---------------------|
|-----------19----------|---------------------|
|--------14-------------|---------------------|
|-(16)---------------17-|-17-16-19-17-(17)----|
|-----------------------|---------------------|
|-----------------------|---------------------|
|
|--------|     PM|    PM
|   E  E  E  E E E E  E    Q     E  E  +H
|-----------------------|---------------------|
|-----------------------|---------------------|
|-----------------------|---------------------|
|------------4-----4----|---------------------|
|---0--0--0--0-0-0-0--0-|--0-----0--0--(0)----|
|---0--0--0--0-0-0-0--0-|--0-----0--0--(0)----|
|
|   W                      W
|-----------------------|---------------------|
|-----------------------|---------------------|
|-----------------------|---------------------|
|-----------------------|---------------------|
|-----------------------|---------------------|
|-----------------------|---------------------|


  E E E E E E E E   E E E E E E E E   E E E E E E E E
|-----------------|-----------------|-----------------|
|-----------------|-----------------|-----------------|
|-----------------|-----------------|-----------------|
|-----------------|-----------------|-----------------|
|-5-5-5-5-5-5-5-5-|-7-7-7-7-7-7-7-7-|-8-8-8-8-8-8-8-8-|
|-5-5-5-5-5-5-5-5-|-7-7-7-7-7-7-7-7-|-8-8-8-8-8-8-8-8-|
|
| E E E E E E E E   E E E E E E E E   E E E E E E E E
|-----------------|-----------------|-----------------|
|-----------------|-----------------|-----------------|
|-----------------|-----------------|-----------------|
|-----------------|-----------------|-----------------|
|-5-5-5-5-5-5-5-5-|-7-7-7-7-7-7-7-7-|-8-8-8-8-8-8-8-8-|
|-5-5-5-5-5-5-5-5-|-7-7-7-7-7-7-7-7-|-8-8-8-8-8-8-8-8-|


   S  S  S  S  S  S  S  S  S  S  S  S  S  S  S  S
|--------------------------------------------------|
|--------------------------------------------------|
|--------------------------------------------------|
|-12-10----------------10-12-11----------------11--|
|-------13-12-10-12-13----------13-12-10-12-13-----|
|--------------------------------------------------|
|
|  S  S  S  S  S  S  S  S  S  S  S  S  S  S  S  S
|--------------------------------------------------|
|--------------------------------------------------|
|-10--9-----------------9-11-10----------------10--|
|-------12-10--8-10-12----------12-11--9-11-12-----|
|--------------------------------------------------|
|--------------------------------------------------|


  W
|------|
|------|
|------|
|------|
|------|
|------|
|
| W
|------|
|------|
|------|
|------|
|------|
|------|


  Q  E Q  E Q     E  E  E  E E E  E E   Q  E Q  E Q     E  E  E  E E E  E E
|--------------|----------------------|--------------|----------------------|
|--------------|----------------------|--------------|----------------------|
|------7----7--|----------------------|------7----7--|----------------------|
|------0----0--|-------12--------12---|------0----0--|-------12--------12---|
|-0--0-0--0-0--|-10-10-10-10-8-8--8-8-|-0--0-0--0-0--|-10-10-10-10-8-8--8-8-|
|-0--0-0--0-0--|-10-10-10-10-8-8--8-8-|-0--0-0--0-0--|-10-10-10-10-8-8--8-8-|
|
| Q  E Q  E Q     E  E  E  E E E  E E   Q  E Q  E Q     E  E  E  E E E  E E
|--------------|----------------------|--------------|----------------------|
|--------------|----------------------|--------------|----------------------|
|------7----7--|----------------------|------7----7--|----------------------|
|------0----0--|-------12--------12---|------0----0--|-------12--------12---|
|-0--0-0--0-0--|-10-10-10-10-8-8--8-8-|-0--0-0--0-0--|-10-10-10-10-8-8--8-8-|
|-0--0-0--0-0--|-10-10-10-10-8-8--8-8-|-0--0-0--0-0--|-10-10-10-10-8-8--8-8-|


  Q  E   Q  E Q     E  E  E  E E E  E E   Q  E Q  E Q    E E  E  E E E  E  E
|----------------|----------------------|--------------|---------------------|
|----------------|----------------------|--------------|---------------------|
|------/10--9-9--|----------------------|------7----7--|------7---------7----|
|----------------|-------12--------12---|------0----0--|---------------------|
|-0--0-----------|-10-10-10-10-8-8--8-8-|-0--0-0--0-0--|-5-5-(5)-5-7-7-(7)-7-|
|-0--0-----------|-10-10-10-10-8-8--8-8-|-0--0-0--0-0--|-5-5-(5)-5-7-7-(7)-7-|
|
| Q  E   Q  E Q     E  E  E  E E E  E E   Q  E Q  E Q    E E  E  E E E  E  E
|----------------|----------------------|--------------|---------------------|
|----------------|----------------------|--------------|---------------------|
|--------7----7--|----------------------|------7----7--|------7---------7----|
|--------0----0--|-------12--------12---|------0----0--|---------------------|
|-0--0---0--0-0--|-10-10-10-10-8-8--8-8-|-0--0-0--0-0--|-5-5-(5)-5-7-7-(7)-7-|
|-0--0---0--0-0--|-10-10-10-10-8-8--8-8-|-0--0-0--0-0--|-5-5-(5)-5-7-7-(7)-7-|


  S S S S S S S S S S S S S S S S    S S  S S  S S  S S S S S S  S S S S
|---------------------------------|----------------------------------------|
|---------------------------------|----------------------------------------|
|---------------------------------|----------------------------------------|
|-0-0-0-0-0-0-0-0-0-0-0-0-0-0-0-0-|--5-5--3-3--2-2--3-3-3-3-2-2--0-0-3-3---|
|---------------------------------|----------------------------------------|
|---------------------------------|----------------------------------------|
|
| Q       E   Q       E   Q          E    E    E    E   E   E    E   E
|---------------------------------|----------------------------------------|
|---------------------------------|----------------------------------------|
|-------------7-----------7-------|----------------------------------------|
|-------------0-----------0-------|-----------12----------------12---------|
|-0-------0---0-------0---0-------|-10---10---10---10---8---8----8---8-----|
|-0-------0---0-------0---0-------|-10---10---10---10---8---8----8---8-----|


  S S S S S S S S S S S S S S S S    S  S S S  S  S S S S S S S  S S S S
|---------------------------------|----------------------------------------|
|---------------------------------|----------------------------------------|
|---------------------------------|----------------------------------------|
|-0-0-0-0-0-0-0-0-0-0-0-0-0-0-0-0-|-10-10-8-8--7--7-8-8-8-8-7-7--5-5-8-8---|
|---------------------------------|----------------------------------------|
|---------------------------------|----------------------------------------|
|
| Q       E   Q       E   Q          E    E    E    E   E   E    E   E
|---------------------------------|----------------------------------------|
|---------------------------------|----------------------------------------|
|-------------7-----------7-------|------------7---------------------------|
|-------------0-----------0-------|-----------------------------12---------|
|-0-------0---0-------0---0-------|--5----5---(5)---5---8---8----8---8-----|
|-0-------0---0-------0---0-------|--5----5---(5)---5---8---8----8---8-----|


  S S S S S S S S S S S S S S S S    S S  S S  S S  S S S S S S  S S S S
|---------------------------------|----------------------------------------|
|---------------------------------|----------------------------------------|
|---------------------------------|----------------------------------------|
|-7-7-7-7-7-7-7-7-7-7-7-7-7-7-7-7-|--5-5--3-3--2-2--5-5-3-3-5-5--3-3-2-2---|
|---------------------------------|----------------------------------------|
|---------------------------------|----------------------------------------|
|
| Q       E   Q       E   Q          E    E    E    E   E   E    E   E
|---------------------------------|----------------------------------------|
|---------------------------------|----------------------------------------|
|-------------7-----------7-------|----------------------------------------|
|-------------0-----------0-------|-----------12----------------12---------|
|-0-------0---0-------0---0-------|-10---10---10---10---8---8----8---8-----|
|-0-------0---0-------0---0-------|-10---10---10---10---8---8----8---8-----|


  S S S S S S S S S S S S S S S S   H    H
|---------------------------------|-----------|
|---------------------------------|-----------|
|---------------------------------|-----------|
|-0-0-0-0-0-0-0-0-0-0-0-0-0-0-2-2-|-3----2----|
|---------------------------------|-----------|
|---------------------------------|-----------|
|
| Q       E   Q       E   Q         H    H
|---------------------------------|-----------|
|---------------------------------|-----------|
|-------------7-----------7-------|-----------|
|-------------0-----------0-------|-----------|
|-0-------0---0-------0---0-------|-5----7----|
|-0-------0---0-------0---0-------|-5----7----|


  W
|------|
|------|
|------|
|-3----|
|-5----|
|------|
|
| W
|------|
|------|
|------|
|------|
|-0----|
|-0----|


--------------------------------------------------------------------------------


Duration Legend
---------------
W - whole; H - half; Q - quarter; E - 8th; S - 16th; T - 32nd; X - 64th; a - acciaccatura
+ - note tied to previous; . - note dotted; .. - note double dotted
Uncapitalized letters represent notes that are staccato (1/2 duration)
Irregular groupings are notated above the duration line
Duration letters will always appear directly above the note/fret number it represents the
duration for.  Duration letters with no fret number below them represent rests.  Multi-
bar rests are notated in the form Wxn, where n is the number of bars to rest for.  Low
melody durations appear below the staff

Tablature Legend
----------------
 h   - hammer-on
 p   - pull-off
 b   - bend
 pb  - pre-bend
 r   - bend release (if no number after the r, then release immediately)
 /\  - slide into or out of (from/to "nowhere")
 s   - legato slide
 S   - shift slide
 - natural harmonic
[n]  - artificial harmonic
n(n) - tapped harmonic
 ~   - vibrato
 tr  - trill
 T   - tap
 TP  - trem. picking
 PM  - palm muting
\n/  - tremolo bar dip; n = amount to dip
 \n  - tremolo bar down
 n/  - tremolo bar up
/n\  - tremolo bar inverted dip
 =   - hold bend; also acts as connecting device for hammers/pulls
 <> - volume swell (louder/softer)
 x   - on rhythm slash represents muted slash
 o   - on rhythm slash represents single note slash

Misc Legend
-----------
 |  - bar
||  - double bar
||o - repeat start
o|| - repeat end
*|  - double bar (ending)
 :  - bar (freetime)
 $  - Segno
 &  - Coda
Tempo markers -  = BPM(8/16=s8/s16), where s8 = swing 8ths, s16 = swing 16ths

--------------------------------------------------------------------------------





Comments


Popular Darkest Hour tabs & chords
Convalescence 1 Bass Tabs
Oklahoma Bass Tabs
Blessed Infection Tabs
Broken Wings 1 Tabs
Broken Wings 2 Tabs
How The Beautiful Decay Tabs
Last Dance Massacre Tabs
Part Ii Tabs
Sadist Nation Tabs
Sanctuary Tabs


Song lyrics



↑ Back to top | Tablatures and chords are parodies/interpretations of the original songs. You may use it for private study, scholarship, research or language learning purposes only
© 2014 AZChords.com Contact us | Privacy policy | DMCA | Add/correct tabs | Request tabs | Top 50 tabs