>
 >
District Divided

District Divided Guitar Tabs

Darkest Hour - District Divided chords, tabs, tablatures, lyrics

Guitar lessons | Add/correct | Request | Top 50 tabs Artists:  A B C D E F G H I J K L M N O P Q R S T U V W X Y Z 0-9

District Divided Guitar Tabs – Darkest Hour

CD, Sheet music, Poster

Do you like District Divided? Share with your friends now
Tabs
Band- Darkest Hour
Song- District Divided

Gtr I (C G C F A D) - 'Untitled'
Gtr II (C G C F A D) - 'Untitled'

 Intro
  Q=140
  C5        F5 D5 E5    N.C.              E5      Bb5
 1/4       4/4
  Gtrs I, II
    Q       E. E. E +E  S S S S S S   S S E E S S E E S S E
|-------||--------------------------|-----------------------|
|-------||o-------------------------|-----------------------|
|-------||--------------------------|-----------------------|
|-------||--------------------------|-----------------------|
|-/10\--||o-3--0--2-(2)-------------|-----2-2-----8-8-----8-|
|-/10\--||--3--0--2-(2)-2-2-2-2-2-2-|-2-2-2-2-2-2-8-8-8-8-8-|


                                     To Coda
  F#5         N.C.
  E. E. E +E  S S S S S S   S S E E E E E E E
|-------------------------|---------------------||
|-------------------------|--------------------o||
|-------------------------|---------------------||
|-------------------------|---------------------||
|-4--4--4-(4)-------------|--------------------o||
|-4--4--4-(4)-4-4-4-4-4-4-|-4-4-8-5p0-8-5p0-8---||


   Chorus
    B5 G5 F#5   N.C.          B5 G5 E5
    E. E. E +E  S S S S S S   E. E. E +E  S  S   Q
||--------------------------|-------------------------|
||o-------------------------|-------------------------|
||--------------------------|-------------------------|
||--4-----------------------|-4-----------------------|
||o-2--5--4-(4)-------------|-2--5--2-(2)-xS(x)S(x)\--|
||-----5--4-(4)-4-4-4-4-4-4-|----5--2-(2)-xS(x)S(x)\--|


                          D.C. al Coda
  B5 G5 F#5   N.C.          BbG5F#B5BbD5
                            |-3-| |-3--|
  E. E. E +E  S S S S S S   Q Q Q Q Q  Q
|-------------------------|---------------||
|-------------------------|--------------o||
|-------------------------|---------------||
|-4-----------------------|---------------||
|-2--5--4-(4)-------------|-8-5-4-9-8-12-o||
|----5--4-(4)-4-4-4-4-4-4-|-8-5-4-9-8-12--||


   Chorus
    &
    B5 G5 F#5   N.C.          B5 G5 E5
    E. E. E +E  S S S S S S   E. E. E +E  S S E E
||--------------------------|---------------------|
||o-------------------------|---------------------|
||--------------------------|---------------------|
||--4-----------------------|-4-------------------|
||o-2--5--4-(4)-------------|-2--5--2-(2)-----2-2-|
||-----5--4-(4)-4-4-4-4-4-4-|----5--2-(2)-2-2-2-2-|


  B5 G5 F#5   N.C.          BbG5F#B5BbD5
                            |-3-| |-3--|
  E. E. E +E  S S S S S S   Q Q Q Q Q  Q
|-------------------------|---------------||
|-------------------------|--------------o||
|-------------------------|---------------||
|-4-----------------------|---------------||
|-2--5--4-(4)-------------|-8-5-4-9-8-12-o||
|----5--4-(4)-4-4-4-4-4-4-|-8-5-4-9-8-12--||


                Bridge
  BbG5F#B5BbD5   N.C.
  |-3-| |-3--|
  Q Q Q Q Q  Q   E S S S S S S S +S  S S E S S   S S S S S S S S E S S E E
|--------------|-------------------------------|----------------------------|
|--------------|-------------------------------|----------------------------|
|--------------|-------------------------------|----------------------------|
|--------------|-------------------------------|----------------------------|
|-8-5-4-9-8-12-|-------3h5-----6-(6)-----3-----|-----3h5---------6-----6-5--|
|-8-5-4-9-8-12-|-0-0-0-----0-0-------0-0---0-0-|-0-0-----0-0-0-0---0-0------|


  N.C.                                  F5 D5     N.C.
                              \2
  +E  S S E S S E S S S S E   H     +E  Q  E   Q  Q      Q     Q
|---------------------------|----------------|-----------------------|
|---------------------------|----------------|-----------------------|
|---------------------------|----------------|-----------------------|
|---------------------------|----------------|----8tr10--6tr8--5tr6--|
|-(5)-----8-----8---------6-|-----------3--0-|-0---------------------|
|-----6-6---6-6---6-6-6-6-6-|-0-----(0)-3--0-|-0---------------------|
                                               W


  N.C.
  E S S S S S S S +E  S S E S   S S S S S S S S E S S E E
|-----------------------------|---------------------------|
|-----------------------------|---------------------------|
|-----------------------------|---------------------------|
|-----------------------------|---------------------------|
|-------3-5-----6-(6)-----3---|-----3h5---------6-----6-5-|
|-0-0-0-----0-0-------0-0---0-|-0-0-----0-0-0-0---0-0-----|


  E S S E S S E S S S S E   S S S S S S S S S S Q  E
|-------------------------|--------------------------|
|-------------------------|--------------------------|
|-------------------------|--------------------------|
|-------------------------|--------------------------|
|-5-----8-----8---------6-|---------------------4----|
|---6-6---6-6---6-6-6-6---|-8-8-8-8-8-8-8-8-8-8----0-|


  N.C.
  +E  S S S S S S S +E  S S E S   S S S S S S S S E S S E E
|-------------------------------|---------------------------|
|-------------------------------|---------------------------|
|-------------------------------|---------------------------|
|-------------------------------|---------------------------|
|---------3-5-----6-(6)-----3---|-----3h5---------6-----6-5-|
|-(0)-0-0-----0-0-------0-0---0-|-0-0-----0-0-0-0---0-0-----|


  E S S E S S E S S S S E   S S S S S S S S S S Q  E
|-------------------------|--------------------------|
|-------------------------|--------------------------|
|-------------------------|--------------------------|
|-------------------------|--------------------------|
|-5-----8-----8---------6-|---------------------4----|
|---6-6---6-6---6-6-6-6---|-8-8-8-8-8-8-8-8-8-8----0-|


  N.C.
  +E  E S S E E E E E   E S S E E E E E E
|---------------------|-------------------|
|---------------------|-------------------|
|---------------------|-------------------|
|---------------------|-------------------|
|-------3-5---6---3---|---3h5-----6---6-5-|
|-(0)-0-----0---0---0-|-0-----0-0---0-----|


   E  E E E E E E E   E E E E E Q  E
|-------------------|-----------------|
|-------------------|-----------------|
|-------------------|-----------------|
|-------------------|-----------------|
|-(5)---8---8-----6-|-----------4-----|
|-----6---6---6-6---|-8-8-8-8-8----0--|


  N.C.
  +E  E S S E E E E E   S S E E E E E E  E
|---------------------|---------------------|
|---------------------|---------------------|
|---------------------|---------------------|
|---------------------|---------------------|
|-------3-5---6---3---|-3h5-----6---6-5-(5)-|
|-(0)-0-----0---0---0-|-----0-0---0---------|


  E E E E E E E E   E E E E E Q  E
|-----------------|-----------------|
|-----------------|-----------------|
|-----------------|-----------------|
|-----------------|-----------------|
|---8---8-----6---|-----------4-----|
|-6---6---6-6---8-|-8-8-8-8-8----0--|


  N.C.
  +E  E E E E Q  E    E  E E E E Q  E    E  E E E E Q  E    E  E E E E Q  E
|------------------|------------------|------------------|------------------|
|------------------|------------------|------------------|------------------|
|------------------|------------------|------------------|------------------|
|------------------|------------------|-------------2----|------------------|
|-------------5----|-------------4----|------------------|-------------1----|
|-(0)-0-0-0-0----2-|-(2)-2-2-2-2----5-|-(5)-5-5-5-5----4-|-(4)-4-4-4-4----0-|


   E  E E E E Q  E    E  E E E E E E E    E  E E E E Q  E
|------------------|-------------------|--------------------|
|------------------|-------------------|--------------------|
|------------------|-------------------|--------------------|
|------------------|-------------------|-------------2------|
|-------------5----|-------------4-----|--------------------|
|-(0)-0-0-0-0----2-|-(2)-2-2-2-2---2-5-|-(5)-5-5-5-5----4---|


  N.C.                              F#                      BbG5F#B5BbD5
                                                            |-3-| |-3--|
  +E  E E Q  E E E    E  E E Q  E E E    E  E E E E E E E   Q Q Q Q Q  Q
|------------------|------------------|-------------------|--------------|
|------------------|------------------|-------------------|--------------|
|------------------|------------------|-------------------|--------------|
|------------------|------------------|-------------------|--------------|
|-------1------1---|-------1------1-1-|-(1)-1-1-1-1-1-1-1-|-8-5-4-9-8-12-|
|-(4)-4---4--4---4-|-(4)-4---4--4---4-|-(4)-4-4-4-4-4-4-4-|-8-5-4-9-8-12-|


 Verse
  F5 D5 E5    N.C.              E5      Bb5
  E. E. E +E  S S S S S S   S S E E S S E E S S E
|-------------------------|-----------------------|
|-------------------------|-----------------------|
|-------------------------|-----------------------|
|-------------------------|-----------------------|
|-3--0--2-(2)-------------|-----2-2-----8-8-----8-|
|-3--0--2-(2)-2-2-2-2-2-2-|-2-2-2-2-2-2-8-8-8-8-8-|


  F#5         N.C.
  E. E. E +E  S S S S S S   S S E H.
|-------------------------|-------------|
|-------------------------|-------------|
|-------------------------|-------------|
|-------------------------|-------------|
|-4--4--4-(4)-------------|-------------|
|-4--4--4-(4)-4-4-4-4-4-4-|-4-4-x-x\----|


  F5 D5 E5    N.C.              E5      Bb5
  E. E. E +E  S S S S S S   S S E E S S E E S S E
|-------------------------|-----------------------|
|-------------------------|-----------------------|
|-------------------------|-----------------------|
|-------------------------|-----------------------|
|-3--0--2-(2)-------------|-----2-2-----8-8-----8-|
|-3--0--2-(2)-2-2-2-2-2-2-|-2-2-2-2-2-2-8-8-8-8-8-|


  F#5         N.C.
  E. E. E +E  S S S S S S   S S E E E E E E E
|-------------------------|-------------------|
|-------------------------|-------------------|
|-------------------------|-------------------|
|-------------------------|-------------------|
|-4--4--4-(4)-------------|-------------------|
|-4--4--4-(4)-4-4-4-4-4-4-|-4-4-8-5p0-8-5p0-8-|


  F5 D5 E5    N.C.              E5      Bb5
  E. E. E +E  S S S S S S   S S E E S S E E S S E
|-------------------------|-----------------------|
|-------------------------|-----------------------|
|-------------------------|-----------------------|
|-------------------------|-----------------------|
|-3--0--2-(2)-------------|-----2-2-----8-8-----8-|
|-3--0--2-(2)-2-2-2-2-2-2-|-2-2-2-2-2-2-8-8-8-8-8-|


  F#5         N.C.          F#5
                            |-3-| |-3-|
  E. E. E +E  S S S S S S   Q Q Q Q Q Q
|-------------------------|--------------|
|-------------------------|--------------|
|-------------------------|--------------|
|-------------------------|--------------|
|-4--4--4-(4)-------------|-4-4-4-4-4-4--|
|-4--4--4-(4)-4-4-4-4-4-4-|-4-4-4-4-4-4--|


   Chorus
    B5 G5 F#5   N.C.          B5 G5 E5
    E. E. E +E  S S S S S S   E. E. E +E  S S E E
||--------------------------|---------------------|
||o-------------------------|---------------------|
||--------------------------|---------------------|
||--4-----------------------|-4-------------------|
||o-2--5--4-(4)-------------|-2--5--2-(2)-----2-2-|
||-----5--4-(4)-4-4-4-4-4-4-|----5--2-(2)-2-2-2-2-|


  B5 G5 F#5   N.C.          BbG5F#B5BbD5     BbG5F#B5BbD5
                            |-3-| |-3--|     |-3-| |-3--|
  E. E. E +E  S S S S S S   Q Q Q Q Q  Q     Q Q Q Q Q  Q
|-------------------------|---------------||---------------*|
|-------------------------|--------------o||---------------*|
|-------------------------|---------------||---------------*|
|-4-----------------------|---------------||---------------*|
|-2--5--4-(4)-------------|-8-5-4-9-8-12-o||-8-5-4-9-8-12--*|
|----5--4-(4)-4-4-4-4-4-4-|-8-5-4-9-8-12--||-8-5-4-9-8-12--*|





Comments


Popular Darkest Hour tabs & chords
Convalescence Bass Tabs
Blessed Infection Tabs
Broken Wings Tabs
Convalescence 1 Tabs
Demons 2 Tabs
Demons Intro Tabs
Fire In The Sky Tabs
Pathos 2 Tabs
The Tides Intro Tabs
Tranquil Tabs


Song lyrics



↑ Back to top | Tablatures and chords are parodies/interpretations of the original songs. You may use it for private study, scholarship, research or language learning purposes only
© 2014 AZChords.com Contact us | Privacy policy | DMCA | Add/correct tabs | Request tabs | Top 50 tabs