>
 >
Closing On The Day

Closing On The Day Guitar Tabs

Darkest Hour - Closing On The Day chords, tabs, tablatures, lyrics

Guitar lessons | Add/correct | Request | Top 50 tabs Artists:  A B C D E F G H I J K L M N O P Q R S T U V W X Y Z 0-9

Closing On The Day Guitar Tabs – Darkest Hour

CD, Sheet music, Poster

Do you like Closing On The Day? Share with your friends now
Tabs
                             Closing of the Day  Darkest Hour

Tuning: DGCFAD


Intro

Lead
D|----------------------|-----------------------|----------------------------|
A|----------------------|-----------------------|----------------------------|
F|-10h12p10-------------|--10h12p10-------------|--10h12p10------------------|
C|---------13-12--10~---|----------13-12--10~---|-----------13-12--10~-------|
G|----------------------|-----------------------|----------------------13-13-|
D|----------------------|-----------------------|----------------------------|

Rhythm
D|----------------------|-----------------------|----------------------------|
A|----------------------|-----------------------|----------------------------|
F|----------------------|-----------------------|----------------------------|
C|----------------------|-----------------------|-----------------------3-3--|
G|-6--------------------|--6--------------------|---1~------------------1-1--|
D|-4--------------------|--4--------------------|---3~-----------------------|


Verse

D|----------------------|---------------------|----------------------------|
A|----------------------|---------------------|----------------------------|
F|----------------------|---------------------|----------------------------|
C|-6-------5------------|-6-------5-----------|----------------------------|
G|----------------------|---------------------|----11-------10-------------|
D|---4444----4444-4444--|--4444----4444-4444--|-------8888-----8888-8888---|

D|----------------------|---------------------|----------------------|
A|----------------------|---------------------|----------------------|
F|----------------------|---------------------|----------------------|
C|----------------------|-6----6-5------------|-6----6-5-------------|
G|-8-------10------8----|---------------------|----------------------|
D|---6666-----6666---66-|---44-----4444-4444--|---44-----4444-4444---|

D|------------------------|----------------------|
A|------------------------|----------------------|
F|------------------------|----------------------|
C|------------------------|----------------------|
G|-11----11-10------------|-8----8--8s10----6~---|
D|----88-------8888-8888--|---66-----------------|


Pre-Chorus

Lead
D|----------------|---------------------|----------------|------------------|
A|----------------|---------------------|----------------|------------------|
F|----------------|---------------------|----------------|------------------|
C|--6--6--6--5~~--|--6-6-6-5---8-8-6----|--6--6--6--5~~--|--3-3-3-5----1~~--|
G|----------------|---------------------|----------------|------------------|
D|----------------|---------------------|----------------|------------------|

D|----------------|---------------------|----------------|------------------|
A|----------------|---------------------|----------------|------------------|
F|----------------|---------------------|----------------|------------------|
C|--6--6--6--5~~--|--6-6-6-5---8-8-6----|--6--6--6--5~~--|--3-3-3-5----1--5-|
G|----------------|---------------------|----------------|------------------|
D|----------------|---------------------|----------------|------------------|

Rhythm
D|---------------|---------------|----------------|---------------|
A|---------------|---------------|----------------|---------------|
F|---------------|---------------|----------------|---------------|
C|--5--5--5--5~--|--5--5--5--5~--|--3--3--3--3~---|---------------|
G|--3--3--3--3~--|--3--3--3--3~--|--1--1--1--1~---|--6--6--6--6~--|
D|---------------|---------------|----------------|--4--4--4--4~--|

D|---------------|---------------|----------------|---------------|
A|---------------|---------------|----------------|---------------|
F|---------------|---------------|----------------|---------------|
C|--5--5--5--5~--|--5--5--5--5~--|--3--3--3--3~---|---------------|
G|--3--3--3--3~--|--3--3--3--3~--|--1--1--1--1~---|--6--6--6--6~--|
D|---------------|---------------|----------------|--4--4--4--4~--|


Chorus

Lead
D|--------------------|--------------------|--------------------|--------------------|
A|--------------------|--------------------|--------------------|--------------------|
F|--------------------|--------------------|--------------------|--------------------|
C|--5--3--3--3-----5--|--5--3--3--3-----5--|--5--3--3--3--------|----------5-------5-|
G|--------------6-----|--------------6-----|--------------6--6--|--5--6--8----8--6---|
D|--------------------|--------------------|--------------------|--------------------|

D|--------------------|--------------------|--------------------|--------------------|
A|--------------------|--------------------|--------------------|--------------------|
F|--------------------|--------------------|--------------------|--------------------|
C|--5--3--3--3-----5--|--5--3--3--3-----5--|--5--3--3--3--------|----------5-------5-|
G|--------------6-----|--------------6-----|--------------6--6--|--5--6--8----8--6---|
D|--------------------|--------------------|--------------------|--------------------|


Rhythm
D|-------------------|-------------------|-------------------|-------------------|
A|-------------------|-------------------|-------------------|-------------------|
F|-------------------|-------------------|-------------------|-------------------|
C|-------------------|-------------------|-------------------|-------------------|
G|-6-6-6-6--6-6-6-6--|-6-6-6-6--6-6-6-6--|-5-5-5-5--5-5-5-5--|-3-3-3-3--3-3-3-3--|
D|-4-4-4-4--4-4-4-4--|-4-4-4-4--4-4-4-4--|-3-3-3-3--3-3-3-3--|-1-1-1-1--1-1-1-1--|

D|-------------------|-------------------|-------------------|-------------------|
A|-------------------|-------------------|-------------------|-------------------|
F|-------------------|-------------------|-------------------|-------------------|
C|-------------------|-------------------|-------------------|-------------------|
G|-6-6-6-6--6-6-6-6--|-6-6-6-6--6-6-6-6--|-5-5-5-5--5-5-5-5--|-3-3-3-3--3-3-3-3--|
D|-4-4-4-4--4-4-4-4--|-4-4-4-4--4-4-4-4--|-3-3-3-3--3-3-3-3--|-1-1-1-1--1-1-1-1--|


Verse 2

Lead
D|--------------------|--------------------|--------------------|--------------------|
A|--------------------|--------------------|--------------------|--------------------|
F|--------------------|--------------------|--------------------|--------------------|
C|--------5-----------|--------------------|--------5-----------|--------------------|
G|---8----------6~~---|--------------------|---8----------6~~---|---5-----6-----8----|
D|--------------------|--------------------|--------------------|--------------------|

D|--------------------|--------------------|--------------------|-----------------|
A|--------------------|--------------------|--------------------|-----------------|
F|--------------------|--------------------|--------------------|-----------------|
C|--3h5p3-------------|--3h5p3-------------|--3h5p3-------------|-----------------|
G|----------6--5---3--|----------6--5---3--|----------6--5---3--|--1-----1~~------|
D|--------------------|--------------------|--------------------|-----------------|

Rhythm
D|----------------------|---------------------|----------------------------|
A|----------------------|---------------------|----------------------------|
F|----------------------|---------------------|----------------------------|
C|-6-------5------------|-6-------5-----------|----------------------------|
G|----------------------|---------------------|----11-------10-------------|
D|---4444----4444-4444--|--4444----4444-4444--|-------8888-----8888-8888---|

D|----------------------|---------------------|----------------------|
A|----------------------|---------------------|----------------------|
F|----------------------|---------------------|----------------------|
C|----------------------|-6----6-5------------|-6----6-5-------------|
G|-8-------10------8----|---------------------|----------------------|
D|---6666-----6666---66-|---44-----4444-4444--|---44-----4444-4444---|

D|------------------------|----------------------|
A|------------------------|----------------------|
F|------------------------|----------------------|
C|------------------------|----------------------|
G|-11----11-10------------|-8----8--8s10----6~---|
D|----88-------8888-8888--|---66-----------------|


Pre-Chorus 2

Lead
D|----------------|----------------|----------------|------------------|
A|----------------|----------------|----------------|------------------|
F|----------------|----------------|----------------|------------------|
C|--6--6--6--5~~--|--6--6--6--5~~--|--6--6--6--5~~--|--3-3--3s5---1~~--|
G|----------------|----------------|----------------|------------------|
D|----------------|----------------|----------------|------------------|

D|----------------|----------------|----------------|------------------|
A|----------------|----------------|----------------|------------------|
F|----------------|----------------|----------------|------------------|
C|--6--6--6--5~~--|--6--6--6--5~~--|--6--6--6--5~~--|--3-3--3s5---1--5-|
G|----------------|----------------|----------------|------------------|
D|----------------|----------------|----------------|------------------|

Rhythm 
D|---------------|---------------|----------------|---------------|
A|---------------|---------------|----------------|---------------|
F|---------------|---------------|----------------|---------------|
C|--5--5--5--5~--|--5--5--5--5~--|--3--3--3--3~---|---------------|
G|--3--3--3--3~--|--3--3--3--3~--|--1--1--1--1~---|--6--6--6--6~--|
D|---------------|---------------|----------------|--4--4--4--4~--|

D|---------------|---------------|----------------|---------------|
A|---------------|---------------|----------------|---------------|
F|---------------|---------------|----------------|---------------|
C|--5--5--5--5~--|--5--5--5--5~--|--3--3--3--3~---|---------------|
G|--3--3--3--3~--|--3--3--3--3~--|--1--1--1--1~---|--6--6--6--6~--|
D|---------------|---------------|----------------|--4--4--4--4~--|


Chorus 2

Lead
D|--------------------|--------------------|--------------------|--------------------|
A|--------------------|--------------------|--------------------|--------------------|
F|--------------------|--------------------|--------------------|--------------------|
C|--5--3--3--3-----5--|--5--3--3--3-----5--|--5--3--3--3--------|----------5-------5-|
G|--------------6-----|--------------6-----|--------------6--6--|--5--6--8----8--6---|
D|--------------------|--------------------|--------------------|--------------------|

D|--------------------|--------------------|--------------------|--------------------|
A|--------------------|--------------------|--------------------|--------------------|
F|--------------------|--------------------|--------------------|--------------------|
C|--5--3--3--3-----8--|--8--6--6--6---5-6--|--6--5--5--5---3----|----------5---------|
G|--------------6-----|--------------------|------------------6-|--5--6--8----8--6--5|
D|--------------------|--------------------|--------------------|--------------------|

Rhythm
D|-------------------|-------------------|-------------------|-------------------|
A|-------------------|-------------------|-------------------|-------------------|
F|-------------------|-------------------|-------------------|-------------------|
C|-------------------|-------------------|-------------------|-------------------|
G|-6-6-6-6--6-6-6-6--|-6-6-6-6--6-6-6-6--|-5-5-5-5--5-5-5-5--|-3-3-3-3--3-3-3-3--|
D|-4-4-4-4--4-4-4-4--|-4-4-4-4--4-4-4-4--|-3-3-3-3--3-3-3-3--|-1-1-1-1--1-1-1-1--|

D|-------------------|-------------------|-------------------|-------------------|
A|-------------------|-------------------|-------------------|-------------------|
F|-------------------|-------------------|-------------------|-------------------|
C|-------------------|-------------------|-------------------|-------------------|
G|-6-6-6-6--6-6-6-6--|-6-6-6-6--6-6-6-6--|-5-5-5-5--5-5-5-5--|-3-3-3-3--3-3-3-3--|
D|-4-4-4-4--4-4-4-4--|-4-4-4-4--4-4-4-4--|-3-3-3-3--3-3-3-3--|-1-1-1-1--1-1-1-1--|
D|--------------------|
A|--------------------|
F|--------------------|
C|--------------------|
G|-6~~----------------|
D|-4~~----------------|


Bridge

Rhythm
D|--------------------|-------------------|-------------------|-------------------|
A|--------------------|-------------------|-------------------|-------------------|
F|--------------------|-------------------|-------------------|-------------------|
C|--------------------|-------------------|-------------------|-------------------|
G|-6-------6------5-6-|-6-------6-----5-6-|-6-------6-----5-6-|-6-------6-----5-6-|
D|---8888----8888-----|---8888----8888----|---4444----4444----|---4444----4444----|

D|--------------------|-------------------|-------------------|-------------------|
A|--------------------|-------------------|-------------------|-------------------|
F|--------------------|-------------------|-------------------|-------------------|
C|--------------------|-------------------|-------------------|-------------------|
G|-6-------6------5-6-|-6-------6-----5-6-|-8-------6-----5-6-|-8-------6-----5-6-|
D|---8888----8888-----|---8888----8888----|---4444----4444----|---6666----6666----|








Interlude

Lead
D|-----------------------|-----------------------|---------------------|
A|-----------------------|-----------------------|---------------------|
F|--8----7----------10-8-|-----7-------------7-8-|------------------5--|
C|------------10---------|----------10----10-----|--8---8---8-----6----|
G|-----------------------|-----------------------|---------------------|
D|----8----8-----8-------|---8----8-----8--------|----4---4---4--------|

D|-----------------------|-----------------|---------------|
A|-----------------------|-----------------|---------------|
F|----5----5----5-----7--|--8-7------10-8--|--7-------7-8--|
C|------------------8----|-------10--------|----10-10------|
G|-----------------------|-----------------|---------------|
D|--4----4----4----------|-----------------|---------------|

D|----------------|----------------|
A|----------------|----------------|
F|-------------5--|--5--5-----5-7--|
C|--8--8--8--6----|--------8-------|
G|----------------|----------------|
D|----------------|----------------|

Rhythm
D|---------------------|-----------------------------|
A|---------------------|-----------------------------|
F|---------------------|-----------------------------|
C|---------------------|-----------------------------|
G|---------------------|-----------------------------|
D|-8888-8888-8888-8888-|-8888-8888-8888--10-10-11-11-|

D|---------------------|---------------------|
A|---------------------|---------------------|
F|---------------------|---------------------|
C|---------------------|---------------------|
G|-8888-8888-8888-8888-|-6666-6666-5555-5555-|
D|---------------------|---------------------|

D|-----------------------------------------------------|
A|-----------------------------------------------------|
F|-----------------------------------------------------|
C|-----------------------------------------------------|
G|-10-10-10-10--10-10-10-10--10-10-10-10--10-10-10-10--|
D|--8--8--8--8---8--8--8--8---8--8--8--8---8--8--8--8--|

D|-----------------------------------------------------|
A|-----------------------------------------------------|
F|-----------------------------------------------------|
C|-----------------------------------------------------|
G|-10-10-10-10--10-10-10-10--10-10-10-10--10-10-10-10--|
D|--8--8--8--8---8--8--8--8---8--8--8--8---8--8--8--8--|

D|-------------------------------------|------------------------------------|
A|-------------------------------------|------------------------------------|
F|-------------------------------------|------------------------------------|
C|-------------------------------------|------------------------------------|
G|-6-6-6-6--6-6-6-6--6-6-6-6--6-6-6-6--|-8-8-8-8--8-8-8-8--8-8-8-8--8-8-8-8-|
D|-4-4-4-4--4-4-4-4--4-4-4-4--4-4-4-4--|-6-6-6-6--6-6-6-6--6-6-6-6--6-6-6-6-|


Solo

Lead
D|---------------------|-----------|-------------------------------------------------|
A|---------------------|-----------|-------------------------------------------------|
F|---------------------|-----------|-------------------------------------------------|
C|-10-12-15-13--12-13--|-----------|-------------------------------------------------|
G|---------------------|-13-15-----|-11-10-8-10--13-11-10-8--13-11-10-11--15-13-11-10|
D|---------------------|-------15~-|-------------------------------------------------|

D|-18-16-15--------------------------------------------------|
A|----------18-16-15-----------------------------------------|
F|-------------------17-15-13-----------------------13-------|
C|----------------------------17-15-13-----13-15-17----17~~--|
G|-------------------------------------17--------------------|
D|-----------------------------------------------------------|

D|----------------------8-10--|-11-11-11-10~~---------13-15---|
A|-----------------9-11-------|-----------------15-16---------|
F|-13-13-13-12~~--------------|-------------------------------|
C|----------------------------|-------------------------------|
G|----------------------------|-------------------------------|
D|----------------------------|-------------------------------|

D|-16-16-16--15-16-15-16-15-16-15-16-15-16-15-16-15-16-15-16-13-11-|
A|-----------------------------------------------------------------|
F|-----------------------------------------------------------------|
C|-----------------------------------------------------------------|
G|-----------------------------------------------------------------|
D|-----------------------------------------------------------------|

D|-13b~-----13-----10-11-10--|-8~~~------|----10-11-10--|-8~~~------------|--6~~~---|
A|---------------------------|-----------|--------------|-----------------|---------|
F|---------------------------|-----------|--------------|-----------------|---------|
C|---------------------------|-----------|--------------|-----------------|---------|
G|---------------------------|-----------|--------------|-----------------|---------|
D|---------------------------|-----------|--------------|-----------------|---------|

Rhythm
D|---------------|---------------|---------------|---------------|---------------|
A|---------------|---------------|---------------|---------------|---------------|
F|---------------|---------------|---------------|---------------|---------------|
C|--5--5--5--5~--|--5--5--5--5~--|--3--3--3--3~--|---------------|--5--5--5--5~--|
G|--3--3--3--3~--|--3--3--3--3~--|--1--1--1--1~--|--6--6--6--6~--|--3--3--3--3~--|
D|---------------|---------------|---------------|--4--4--4--4~--|---------------|

D|---------------|---------------|---------------|
A|---------------|---------------|---------------|
F|---------------|---------------|---------------|
C|--5--5--5--5~--|--3--3--3--3~--|---------------|
G|--3--3--3--3~--|--1--1--1--1~--|--6--6--6--6~--|
D|---------------|---------------|--4--4--4--4~--|

D|----------------------|-----------------------|----------------------------|
A|----------------------|-----------------------|----------------------------|
F|-10h12p10-------------|--10h12p10-------------|--10h12p10------------------|
C|---------13-12--10~---|----------13-12--10~---|-----------13-12--10~-------|
G|----------------------|-----------------------|----------------------13-13-|
D|----------------------|-----------------------|----------------------------|


Chorus 3

Lead
D|--------------------|--------------------|--------------------|--------------------|
A|--------------------|--------------------|--------------------|--------------------|
F|--------------------|--------------------|--------------------|--------------------|
C|--5--3--3--3-----5--|--5--3--3--3-----5--|--5--3--3--3--------|----------5-------5-|
G|--------------6-----|--------------6-----|--------------6--6--|--5--6--8----8--6---|
D|--------------------|--------------------|--------------------|--------------------|

D|--------------------|--------------------|--------------------|--------------------|
A|--------------------|--------------------|--------------------|--------------------|
F|--------------------|--------------------|--------------------|--------------------|
C|--5--3--3--3-----5--|--5--3--3--3-----5--|--5--3--3--3--------|----------5-------8-|
G|--------------6-----|--------------6-----|--------------6---6-|--5--6--8----8--6---|
D|--------------------|--------------------|--------------------|--------------------|

D|---------------------|---------------------|--------------------|------------------|
A|---------------------|---------------------|--------------------|------------------|
F|---------------------|---------------------|--------------------|------------------|
C|--8--6--6--6---5--8--|--8--6--6--6---5--8--|--8--6--6--6---5----|--------6--------8|
G|---------------------|---------------------|-----------------8--|-6-8-10-----10-8--|
D|---------------------|---------------------|--------------------|------------------|


Rhythm
D|-------------------|-------------------|-------------------|-------------------|
A|-------------------|-------------------|-------------------|-------------------|
F|-------------------|-------------------|-------------------|-------------------|
C|-------------------|-------------------|-5-5-5-5--5-5-5-5--|-3-3-3-3--3-3-3-3--|
G|-6-6-6-6--6-6-6-6--|-6-6-6-6--6-6-6-6--|-3-3-3-3--3-3-3-3--|-1-1-1-1--1-1-1-1--|
D|-4-4-4-4--4-4-4-4--|-4-4-4-4--4-4-4-4--|-------------------|-------------------|

D|-------------------|-------------------|-------------------|-------------------|
A|-------------------|-------------------|-------------------|-------------------|
F|-------------------|-------------------|-------------------|-------------------|
C|-------------------|-------------------|-5-5-5-5--5-5-5-5--|-3-3-3-3--3-3-3-3--|
G|-6-6-6-6--6-6-6-6--|-6-6-6-6--6-6-6-6--|-3-3-3-3--3-3-3-3--|-1-1-1-1--1-1-1-1--|
D|-4-4-4-4--4-4-4-4--|-4-4-4-4--4-4-4-4--|-------------------|-------------------|

D|-------------------|-------------------|-------------------|-------------------|
A|-------------------|-------------------|-------------------|-------------------|
F|-------------------|-------------------|-------------------|-------------------|
C|-------------------|-------------------|-5-5-5-5--5-5-5-5--|-3-3-3-3--3-3-3-3--|
G|-6-6-6-6--6-6-6-6--|-6-6-6-6--6-6-6-6--|-3-3-3-3--3-3-3-3--|-1-1-1-1--1-1-1-1--|
D|-4-4-4-4--4-4-4-4--|-4-4-4-4--4-4-4-4--|-------------------|-------------------|

D|-------------------|-------------------|-------------------|-------------------|
A|-------------------|-------------------|-------------------|-------------------|
F|-------------------|-------------------|-------------------|-------------------|
C|-------------------|-------------------|-5-5-5-5--5-5-5-5--|-3-3-3-3--3-3-3-3--|
G|-6-6-6-6--6-6-6-6--|-6-6-6-6--6-6-6-6--|-3-3-3-3--3-3-3-3--|-1-1-1-1--1-1-1-1--|
D|-4-4-4-4--4-4-4-4--|-4-4-4-4--4-4-4-4--|-------------------|-------------------|


Outro

Lead
D|-----------------|-----------------|-----------------|---------------|-------------|
A|--12-10-10-10--8-|-----------------|-----------------|-----------11--|--9~~~-------|
F|-----------------|--12-10-10-10--8-|--12-10-10-10--8-|--7-8-10-8-----|-------------|
C|-----------------|-----------------|-----------------|---------------|-------------|
G|-----------------|-----------------|-----------------|---------------|-------------|
D|-----------------|-----------------|-----------------|---------------|-------------|

Rhythm
D|-----------------|-----------------|-----------------|---------------|-------------|
A|-----------------|-----------------|-----------------|---------------|-------------|
F|-----------------|-----------------|-----------------|---------------|-------------|
C|-----------------|-----------------|-5-5--5-5--5~----|-3-3--3-3--3~--|-------------|
G|-6-6--6-6---6~---|-6-6--6-6---6~---|-3-3--3-3--3~----|-1-1--1-1--1~--|-6~~---------|
D|-4-4--4-4---4~---|-4-4--4-4---4~---|-----------------|---------------|-4~~---------|






************************************

| /   slide up
| \   slide down
| h   hammer-on
| p   pull-off
| ~   vibrato
| +   harmonic
| x   Mute note
| b   Bend
| pb  Pre-bend
| br  Bend release
| pbr Pre-bend release
| brb Bend release bend

************************************





Comments


Popular Darkest Hour tabs & chords
Demon(S) Bass Tabs
How The Beautiful Decay 2 Bass Tabs
Convalescence 2 Tabs
Hollow Intro 1 Tabs
Mark Of The Judas Tabs
Paradox With The Flies Intro Tabs
Pay Phones And Pills Tabs
Terra Nocturnus Tabs
With A Thousand Words To Say But One Tabs
With A Thousand Words To Say But One 1 Tabs


Song lyrics



↑ Back to top | Tablatures and chords are parodies/interpretations of the original songs. You may use it for private study, scholarship, research or language learning purposes only
© 2014 AZChords.com Contact us | Privacy policy | DMCA | Add/correct tabs | Request tabs | Top 50 tabs