>
 >
Blessed Infection

Blessed Infection Guitar Tabs

Darkest Hour - Blessed Infection chords, tabs, tablatures, lyrics

Guitar lessons | Add/correct | Request | Top 50 tabs Artists:  A B C D E F G H I J K L M N O P Q R S T U V W X Y Z 0-9

Blessed Infection Guitar Tabs – Darkest Hour

CD, Sheet music, Poster

Do you like Blessed Infection? Share with your friends now
Tabs
intro
|-------------------------------------------------------------------|
|-------------------------------------------------------------------|
|-14-14-14-12--15-15-15-14--12-12-12-10--10-10-10-10-10--8--8--8--8-|
|-------------------------------------------------------------------|
|-12-12-12-10--13-13-13-12--10-10-10--8--12-12-12-12-12-10-10-10-10-|
|-------------------------------------------------------------------|

|----------------------------------------|--------------|
|----------------------------------------|--------------|
|-14-14-14-12--17-17-17-15--12-12-12-10--|-17-15-12-14--|
|----------------------------------------|--------------|
|-12-12-12-10--15-15-15-13--10-10-10--8--|-15-13-10-12--|
|----------------------------------------|--------------|

verse riff
gtrs 1 & 2 twice then guitar 2's higher part comes in

|---------------------------------------------------------------------------|
|---------------------------------------------------------------------------|
|---------------------------------------------------------------------------|
|---------------------------------------------------------------------------|
|-----8---8----------10----10----8----7--------8---8-------8---8---7---5----|
|-0-0---0---10-10-10----10----10---10---10-8-8---8---8-5-5---5---5---5------|

gtr 2
|--------------------------------------------------------------------------------|
|--------------------------------------------------------------------------------|
|--------------------------------------------------------------------------------|
|----------------------------------------------------------------7---7---5---8-8-|
|-----12---12----------13----13----12----10--------12---12-----------------------|
|-0-0----0----10-10-10----10----10----10----10-8-8----8----8-5-5---5---5---5-----|

pre-chorus
|----------------------------------------------------------|
|----------------------------------------------------------|
|-14-----12-----14---15---15---14---12---14-----12-----14--|
|----0-0----0-0----0----0----0----0---------0-0----0-0-----|
|----------------------------------------------------------|
|----------------------------------------------------------|

|-------------------------------------|----------------------------------|
|-------------------------------------|-13-11-10-------------------------|
|-15-14-12-------------------10-12-14-|----------12-10-9-----------------|
|----------15-14-12-10-12-14----------|------------------12-10-9---------|
|-------------------------------------|--------------------------12-10-9-|
|-------------------------------------|----------------------------------|

chorus
|----------------------------------|----------------------|
|----------------------------------|----------------------|
|-17-15-14-15-14-12-10-12-14-7-9-7-|-17-15-14-15-14-12-10-|
|----------------------------------|----------------------|
|-15-13-12-13-12-10--8-10-12-5-7-5-|-15-13-12-13-12-10--8-|
|----------------------------------|----------------------|

breakdown
|-----------------------------------------------------------------------|
|-----------------------------------------------------------------------|
|-----------------------------------------------------------------------|
|-----------------------------------------------------------------------|
|-12-----12-----12-----12-----12---12-13-10-----10-----10-----10-----10-|
|----0-0----0-0----0-0----0-0----0----------0-0----0-0----0-0----0-0----|

|-----------------------------------------------------------------------|
|-----------------------------------------------------------------------|
|-----------------------------------------------------------------------|
|-----------------------------------------------------------------------|
|---10-12-10-----10-----10-----10-----10---10---12-------12-------12----|
|-0----------8-8----8-8----8-8----8-8----8----8----10-10----10-10----10-|

|-----------------------|
|-----------------------|
|-----------------------|
|-----------------------|
|-10----10----8---8-----|
|----10----10---8---8---|


my attempt at the first solo
|--------------------------------------------------|
|-16-15-16-15-16-15----15--------------------------|
|-------------------17----17-15-17-15-14-15-14-----|
|----------------------------------------------17--|
|--------------------------------------------------|
|--------------------------------------------------|

|-------------------------------------------------------|
|-------------------------------------------------------|
|-------------------------------------14-15-17-14-15-17-|
|-------------------14-15-17-14-15-17-------------------|
|-13-15-17-13-15-17-------------------------------------|
|-------------------------------------------------------|

|-----------------------17----------------------------------18-17-15-------------------|
|-15-17-18-15-17-18--20----18-17-15-17-18-15-13----17-18-15----------18-17-15-17-18-13-|
|-----------------------------------------------14-------------------------------------|
|--------------------------------------------------------------------------------------|
|--------------------------------------------------------------------------------------|
|--------------------------------------------------------------------------------------|

|----------10-12-13---------------------------------------------------------------------------|
|-10-12-13----------------------------------------------------------------14-15-17-14-15-17---|
|-------------------------------------------------------14-15-17-14-15-17---------------------|
|-------------------------------------14-15-17-14-15-17---------------------------------------|
|-------------------13-15-17-13-15-17---------------------------------------------------------|
|---------------------------------------------------------------------------------------------|

i cant seem to get the last few notes right at the end but i will. and ill have the second
solo in no time





Comments


Popular Darkest Hour tabs & chords
Broken Wings Tabs
Closing On The Day Tabs
Convalescence Tabs
Demons 2 Tabs
Doomsayer Tabs
Doomsayer 2 Tabs
Full Imperial Collapse Tabs
No God Tabs
Stand And Receive Your Judgement Tabs
These Fevered Times Tabs


Song lyrics



↑ Back to top | Tablatures and chords are parodies/interpretations of the original songs. You may use it for private study, scholarship, research or language learning purposes only
© 2014 AZChords.com Contact us | Privacy policy | DMCA | Add/correct tabs | Request tabs | Top 50 tabs