» » »

Another Reason Tabs (ver.1)

Artists:  A B C D E F G H I J K L M N O P Q R S T U V W X Y Z # 

Another Reason Tabs (ver.1)

Darkest Hour
Rating:
5/5 (1 vote)

Hard to play? Try these video lessons and learn fast.
                darkest hour
another reason
CGCFAD      *=palm mute


Riff A
-----------------------------------------------|
-----------------------------------------------|
-----------------------------------------------|
-----------------------------------------------|
-2--2-0-2-2-0-2-2-0-2-2-2-1-----555------------|
-2--2-0-2-2-0-2-2-0-2-2-2-1-----555------------|


Riff B
-----------------------------------------------------------|
-----------------------------------------------------------|
-----------------------___---------------------------------|
----------------------/   \--------------HO----------------|
6-6-6-5-6-*--3--*-6-*-3-5-6-5-5-6-5-6-*---8-6-5---6--------|
6-6-------0--3--3---3-------5-5-------5---------8---8-7-6~-|


--------------------guitar 2--plays--)-)--------------|
------------------------------------7-7---------------|
------------------------___---------------------------|
-----------------------/   \----***-----***-----------|
6-6-6-5-6-*--3--*-6-*-3-5-6-5-5-555-5-5-555-----------|
6-6-------0--3--3---3-------5-5-555-5-5-555-----------|


Riff C
-----------------]--------------------------------------|
-----------------]--------------------------------------|
-----------------]--------------------1010---1010-------|
-----------------]--------------------8-8----8-8--------|
-66---3---55---1-]--66---3---55---1---8-8----8-8--------|
-66-x-3-x-55-x-1-]--66-x-3-x-55-x-1-x-8-8xxx-8-8-xxx----|


Riff D
---------------------------------------harmony--------|
-------------------------------------]-in between ----|
----___---__------___----_-----------]-root notes-----|
---/   \-/  \ ---/   \--/ \----------]-0-2-3-3-2-0----|
-0-0-3-5-5-3-0-2-0-3-5-5-3-0-3---3^5-]----------------|
-0-------------2-------------3-------]----------------|

both guitars alternate main riff with
root notes a.k.a.0,2,3
            
Hard to play? Try these video lessons and learn fast. | Correct




comments powered by Disqus
↑ Back to top | Tablatures and chords are parodies/interpretations of the original songs. You may use it for private study, scholarship, research or language learning purposes only