>
 >
A Distorted Utopia

A Distorted Utopia Guitar Tabs

Darkest Hour - A Distorted Utopia chords, tabs, tablatures, lyrics

Guitar lessons | Add/correct | Request | Top 50 tabs Artists:  A B C D E F G H I J K L M N O P Q R S T U V W X Y Z 0-9

A Distorted Utopia Guitar Tabs – Darkest Hour

CD, Sheet music, Poster

Do you like A Distorted Utopia? Share with your friends now
Tabs
---------------------------------------------------------------------------
---------------------------------------------------------------------------

Tuning: Drop C (CGCFAD)


INTRO
D|--------------------------------------------------------------|
A|--------------------------------------------------------------|
F|--------------------------------------------------------------|
C|-0-0-------1-1-1-1-0-1-4-4-5-4-5-5-5-5-8-7-5--0~--------------|
G|-0-0-5-3-5-1-1-1-------4-4-------5-5-5--------0~-whammy bar---|
C|-0-0-------1-1-1-------4-4-------5-5-5--------0~--------------|

VERSE
D|-------------------------------------------------|
A|-------------------------------------------------|
F|-------------------------------------------------|
C|-------------------1-0-1-------5-4-5-------8-7-5-|
G|-------5-3-5-------------------------------------|
C|-0-0-0-------1-1-1-------4-4-4-------5-5-5-------|
   . . .       . . .       . . .       . . .

D|-------------------------------------------------|
A|-------------------------------------------------|
F|-------------------------------------------------|
C|-------------------1-0-1-4-4-4-5-5-5-4-4-4-1-1-1-|
G|-------5-3-5-------------------------------------|
C|-0-0-0-------1-1-1-------------------------------|
   . . .       . . .

D|-------------------------------------------------|
A|-------------------------------------------------|
F|-------------------------------------------------|
C|-------------------1-0-1-------5-4-5-------8-7-5-|
G|-------5-3-5-------------------------------------|
C|-0-0-0-------1-1-1-------4-4-4-------5-5-5-------|
   . . .       . . .       . . .       . . .

D|-------------------------------------------------|
A|-------------------------------------------------|
F|-------------------------------------------------|
C|-------------------1-0-1-8-6-5-6-5---5-----------|
G|-------5-3-5-----------------------8---8-6-8-6-5-|
C|-0-0-0-------1-1-1-------------------------------|
   . . .       . . .       . . . . . . . . . . . .

VERSE, pt. 2
D|----------------------------------------------|
A|----------------------------------------------|
F|----------------------------------------------|
C|----------------------------------------------|
G|----------------------------------------------|
C|-3-3-3-3-3-3-5-5-5-5-5-5-0--0-0-0--0--0-0-0-0-|
   . . . . . . . . . . . . .  . . .  .  . . . .

D|----------------------------------------------|
A|----------------------------------------------|
F|----------------------------------------------|
C|----------------------------------------------|
G|----------------------------------------------|
C|-8-8-8-8-8-8-3-3-3-5-5-5-0--0-0-0--0--0-0-0-0-|
   . . . . . . . . . . . . .  . . .  .  . . . .

D|---------|
A|---------|
F|---------|
C|-8~--10~-|
G|-8~--10~-|
C|-8~--10~-|

CHORUS, pt. 1
D|--------------------------------------------------|
A|--------------------------------------------------|
F|-------7-7-7-------7-7-7-------7-7-7-8-8-8-7-7-7--|
C|--------------------------------------------------|
G|--------------------------------------------------| x2
C|-5-5-5-------5-5-5-------5-5-5--------------------|

D|----------------------------------------------------------|
A|----------------------------------------------------------|
F|----------8-8-8----------8-8-8----------8-8-8-7-7-7-5-5-5-|
C|----------------------------------------------------------|
G|----------------------------------------------------------|
C|-10-10-10-------10-10-10-------10-10-10-------------------|

D|--------------------------------------------------|
A|--------------------------------------------------|
F|-------7-7-7-------7-7-7-------7-7-7-8-8-8-7-7-7--|
C|--------------------------------------------------|
G|--------------------------------------------------|
C|-5-5-5-------5-5-5-------5-5-5--------------------|

CHORUS, pt. 2
D|-------------------------------------------------|
A|-------------------------------------------------|
F|-------7-7-7-5-5-5-------------------------------|
C|-------------------8-8-7-7-7-7-5-5-5-7-7-7-8-8-8-|
G|-------------------------------------------------|
C|-1-1-1-------------------------------------------|

D|----------------------------------------------------|
A|----------------------------------------------------|
F|-------7-7-7-5-5-5-------------------10-10-10-8-8-8-|
C|-------------------8-8-7-7-7-7-5-5-5----------------|
G|----------------------------------------------------|
C|-5-5-5----------------------------------------------|




D|-------------------------------------------------|
A|-------------------------------------------------|
F|-------5-5-5-------5-5-5-------7-7-7-------7-7-7-|
C|-------------------------------------------------|
G|-------------------------------------------------|
C|-3-3-3-------3-3-3-------5-5-5-------5-5-5-------|

D|-------------------------------------------------|
A|-------------------------------------------------|
F|-------------------------------------------------|
C|-5-5-5-5-5-5-5-5-5-5-5-5-7-7-7-7-7-7-7-7-7-7-7-7-|
G|-------------------------------------------------|
C|-------------------------------------------------|

REPEAT INTRO
REPEAT VERSE
REPEAT CHORUS

BRIDGE
D|------------------------------------------------|
A|------------------------------------------------|
F|------------------------------------------------|
C|------------------------------------------------|
G|-6-----------5----------3-----------5-----------|
C|---5-5-5-5-5---5-5-5-5-5--5-5-5-5-5---5-5-5-5-5-|
     . . . . .   . . . . .  . . . . .   . . . . .

D|---------------------------------------------------|
A|---------------------------------------------------|
F|---------------------------------------------------|
C|---------------------------------------------------|
G|-6-----------5-----------3-------------------------|
C|---3-3-3-3-3---3-3-3-3-3---3-3-3-3-3-3-3-3-3-3-3-3-|
    . . . . .    . . . . .   . . . . . . . . . . . .

D|-------------------------------------------------|
A|-------------------------------------------------|
F|-------------------------------------------------|
C|-1-----------------------------------------------|
G|-------------5-----------3-----------5-----------|
C|---1-1-1-1-1---1-1-1-1-1---1-1-1-1-1---1-1-1-1-1-|
     . . . . .   . . . . .   . . . . .   . . . . .

D|-------------------------------------------------|
A|-------------------------------------------------|
F|-------------------------------------------------|
C|-1-----------------------3-----------------------|
G|-------------5-----------------------5-----------|
C|---1-1-1-1-1---1-1-1-1-1---1-1-1-1-1---1-1-1-1-1-|
     . . . . .   . . . . .   . . . . .   . . . . .

*Thereís already a perfect Guitar Pro tab of the solo, and Iím not going 
to just copy it. Check out the Guitar Pro if you want to learn the solo* 

SOLO RHYTHM 
D|--------------------------|
A|--------------------------|
F|--------------------------|
C|-10--8--6--3--10--8--6--6-|
G|-10--8--6--3--10--8--6--6-|
C|-10--8--6--3--10--8--6--6-|

REPEAT VERSE

END ON
D|------------------------|
A|------------------------|
F|------------------------|
C|-0--------------0-0-0-0-|
G|-0-whammy bar---0-0-0-0-|
C|-0--------------0-0-0-0-|

| .  palm mute
| ď  tremolo pick
| *  pinch harmonic
| ~  let note ring
| /  slide up
| \  slide down
| h  hammer-on
| p  pull-off
| v  vibrato
| +  natural harmonic
| x  mute note





Comments


Popular Darkest Hour tabs & chords
Eclipse Bass Tabs
Reflections Of Ruin Bass Tabs
With A Thousand Words To Say But One Bass Tabs
An Epitaph Tabs
Bear Hunting Tabs
Broken Wings 2 Tabs
Doomsayer 2 Tabs
Eclipse Tabs
For The Soul Of The Savior Tabs
With A Thousand Words To Say But One Tabs


Song lyrics



↑ Back to top | Tablatures and chords are parodies/interpretations of the original songs. You may use it for private study, scholarship, research or language learning purposes only
© 2014 AZChords.com Contact us | Privacy policy | DMCA | Add/correct tabs | Request tabs | Top 50 tabs