» » »

Darkest Hour, A Cold Kiss Tabs (ver.1)

Artists:  A B C D E F G H I J K L M N O P Q R S T U V W X Y Z # 

A Cold Kiss Tabs (ver.1)

Darkest Hour Tabs
 Rating:
3.3/5 (6 votes)
A Cold Kiss lessons Tabs too difficult? Try these video lessons and learn fast
                ---------------------------------------------------------
               Darkest Hour - A Cold Kiss
---------------------------------------------------------

Drop c

FILL 1

C|88-77-55-33-0|
G|88-77-55-33-0|
C|88-77-55-33-0|

INTRO

Guitar 1
C|0----8----5----3-3-0|
G|0----8----5----3-3-0|
C|0----8----5----3-3-0|

GUITAR 2
C|--------------------88888888-55555-33-0|
G|8-8-7-8-10-8-8-10-8-88888888-55555-33-0|
C|--------------------88888888-55555-33-0|

VERSE 
GUITAR 1
C|3-3-2-3-5-3-3-5-3-2--3-3-2-3-5-3--5-3-0--3-3-2-3-5-3-3-5-3-2--3-3-2-3-88-77-55-33-0|
G|----------------------------------------------------------------------88-77-55-33-0|
C|----------------------------------------------------------------------88-77-55-33-0|
GUITAR 2 UNKNOWN

CHORUS
F|--------------------------------2-----------------------------------------------------|
C|32---32---3-2-2-23--32---32---3----5-3-2-0-32---32---3-2-2-23--32--3-2-3-5-3-7-5-3-2-0|
G|---3----1--------------3----1-----------------3----1----------------------------------|
C|--------------------------------------------------------------------------------------|

BRIDGE Prt 1

C|0-12-10-12-0-12-12-10-12-12/--12-10-12-888-333-0|
G|0-12-10-12-0-12-12-10-12-12/--12-10-12-888-333-0|
C|0-12-10-12-0-12-12-10-12-12/--12-10-12-888-333-0|

BRIDGE Prt 2

C|000000000000000-~12~-888-333-0|
G|000000000000000------888-333-0|
C|000000000000000------888-333-0|
  P.M.


SONG GOES:
FILL 1
INTRO \
VERSE  >2 TIMES
CHORUS/
BRIDGE Prt 1
BRIDGE Prt 2
FILL 1
CHORUS
BRIDGE Prt 1
            
Submit corrections

comments powered by Disqus
↑ Back to top | Darkest Hour Tabs for A Cold Kiss. Lyrics for acoustic guitar and electric guitar. Tablatures and chords are parodies/interpretations of the original songs. You may use it for private study, scholarship, research or language learning purposes only