» » »

We Are Darkbuster Tabs (ver.1)

Artists:  A B C D E F G H I J K L M N O P Q R S T U V W X Y Z # 

We Are Darkbuster Tabs (ver.1)

Darkbuster
Rating:
0/5 (0 votes)

Hard to play? Try these video lessons and learn fast.
                
Great song by a great band.  Noticed there weren't many tabs on here for them so I
though I'd give this a shot.

Tuning: Standard

b=bend
*=pinch harmonic

Verse
E------------------------------------|
B------------------------------5--5--|
G-7-7-7-7-7-7-7-7-----5--5-----5--5--|
D-7-7-7-7-7-7-7-7-----5--5-----3--3--|
E-5-5-5-5-5-5-5-5-----3--3-----------| x6

Guitar Solo 1

E-----9b*-------------9b*-------------------------------|
B----------10*-9*---------------------------------------|
G----------------9*-------------------------------------|
D-------------------------------------------------------|
E-------------------------------------------------------|

Verse
E--------------------------------------|
B------------------------------5--5----|
G-7-7-7-7-7-7-7-7-----5--5-----5--5----|
D-7-7-7-7-7-7-7-7-----5--5-----3--3----|
E-5-5-5-5-5-5-5-5-----3--3-------------|   x4

(bass solo)

Verse
E--------------------------------------|
B------------------------------5--5----|
G-7-7-7-7-7-7-7-7-----5--5-----5--5----|
D-7-7-7-7-7-7-7-7-----5--5-----3--3----|
E-5-5-5-5-5-5-5-5-----3--3-------------|   x4

Guitar solo 2
E--12-15-13-12-15-13-12-15-13-12-15-13-------------|
B--------------------------------------------------|
G--------------------------------------------------|
D--------------------------------------------------|
E---------------------------------------------15b--|

There's something going on between before the bend on the low E, but I can't tell
exactly what is being played, just make some noise.

Verse
E-------------------------------------|
B------------------------------5--5---|
G-7-7-7-7-7-7-7-7-----5--5-----5--5---|
D-7-7-7-7-7-7-7-7-----5--5-----3--3---|
E-5-5-5-5-5-5-5-5-----3--3------------|  x4
End
E-------------------|
B-------------------|
G-7---7---7---7---7-|
D-7---7---7---7---7-|
E-5---5---5---5---5-|

And that's it!  This was my first tab, so If anything sounds wrong, send me a PM over at 
the forums.
            
Hard to play? Try these video lessons and learn fast. | Correct




comments powered by Disqus
↑ Back to top | Tablatures and chords are parodies/interpretations of the original songs. You may use it for private study, scholarship, research or language learning purposes only