» » »

Stand And Deliver Tabs (ver.1)

Artists:  A B C D E F G H I J K L M N O P Q R S T U V W X Y Z # 

Stand And Deliver Tabs (ver.1)

Darkbuster
Rating:
0/5 (0 votes)

Hard to play? Try these video lessons and learn fast.
                Darkbuster
A Weakness for Spirits
Stand and Deliver

Intro
Guitar 1:
------------------------------------------|
------------------------------------------|
---11-11-9-9-11-9-9-11-11-9-9-11-11-9-9---|
------------------------------------------|
------------------------------------------| x3
------------------------------------------|

---------------------------|
----------------------15---|
---11-11-9-9-11-11/14------|
---------------------------|
---------------------------| x1
---------------------------|

Intro
Guitar 2:
-------|
-------|
---7---|
---7---|
---5---| x4
-------|

Verse Both Guitars:
--------------------------------------|
--------------------------------------|
----7-7-7-7-7-7-7-7---------7-7-7-7---|
----7-7-7-7-7-7-7-7-7-7-7-7-7-7-7-7---|
----5-5-5-5-5-5-5-5-7-7-7-7-5-5-5-5---| x2
--------------------5-5-5-5-----------|

Chorus Both Guitars:
-------------------------------------|
-------------------------------------|
-----------7-7-7-7-2-2-2-2-4-4-4-4---|
---5-5-5-5-7-7-7-7-2-2-2-2-4-4-4-4---|
---5-5-5-5-5-5-5-5-0-0-0-0-2-2-2-2---| x2
---3-3-3-3---------------------------|

Bridge
Guitar 1:
---------------|
---------------|
---11-11-9-9---|
---------------|
---------------| x16
---------------|

Guitar 2:
Plays Verse
            
Hard to play? Try these video lessons and learn fast. | Correct




comments powered by Disqus
↑ Back to top | Tablatures and chords are parodies/interpretations of the original songs. You may use it for private study, scholarship, research or language learning purposes only