» » »

Darkbuster, Miller Tabs (ver.1)

Artists:  A B C D E F G H I J K L M N O P Q R S T U V W X Y Z # 

Miller Tabs (ver.1)

Darkbuster Tabs
Rating:
0/5 (0 votes)
Miller lessons Tabs too difficult? Try these video lessons and learn fast
                Darkbuster
22 Songs That You Will Never Wanna Hear Again

Intro/Verse/Chorus:
---------------------|
---------------------|
---7-7-4-4-----------|
---7-7-4-4-5-5-7-7---|
---5-5-2-2-5-5-7-7---| x7
-----------3-3-5-5---|

Bridge:
---------------|
---------------|
---------------|
---5-5-5-5-7---|
---5-5-5-5-7---|
---3-3-3-3-5---|
            

comments powered by Disqus
↑ Back to top | Darkbuster Tabs for Miller. Lyrics for acoustic guitar and electric guitar. Tablatures and chords are parodies/interpretations of the original songs. You may use it for private study, scholarship, research or language learning purposes only