» » »

Welcome To The Slaughterhouse Tabs (ver.1)

Artists:  A B C D E F G H I J K L M N O P Q R S T U V W X Y Z # 

Welcome To The Slaughterhouse Tabs (ver.1)

Dark Angel
Rating:
5/5 (1 vote)

Hard to play? Try these video lessons and learn fast.
                Notation Key
~: vibrato
^: bend
.: palm mute
r: release
t: trill
p: pull-off
h: hammer-on
x: ghost note
/: slide up
\: slide down

-----------------------------------------------------------------------------

Effects

            TIME- 0:34

Riff 1A x6
e|-----------------------------------|
B|-----------------------------------|
G|-----------------------------------|
D|-----------------------------------|
A|------2---3---2---1---2---1---2----|
E|--000---0---0---0---0---0---0---0--|

Riff 1B x4
e|---------------------------|
B|---------------------------|
G|---------------------------|
D|------4--5--4--3--4--3--4--|
A|------2--3--2--1--2--1--2--|
E|--000----------------------|

Riff 2 x4
e|-------------------------------|
B|-------------------------------|
G|-------7------6----------------|
D|-------5------4------9------8--|
A|---------------------7------6--|
E|--0000---0000---0000---0000----|

            TIME- 1:10

Riff 3 x10
e|------------------------------------|
B|------------------------------------|
G|------------------------------------|
D|------------------------------------|
A|------4h5p4-----3h4p3---------------|
E|--000-------000-------000000000000--|

Riff 4 x4
e|---------------------------------------------|
B|---------------------------------------------|
G|---------------------------------------------|
D|---------------------------------------------|
A|------4h5p4-3h4p3-2h3p2----------------------|
E|--000-------------------000-2h3p2-000-1h2p1--|

            TIME- 1:45

Riff 1B x2
e|---------------------------|------------------------------|
B|---------------------------|------------------------------|
G|---------------------------|------------------------------|
D|------4--5--4--3--4--3--4--|------4--5--4--3--4--3-4-3----|
A|------2--3--2--1--2--1--2--|------2--3--2--1--2--1-2-1-5--|
E|--000----------------------|--000----------------------3--|

Riff 2 x4
e|-------------------------------|
B|-------------------------------|
G|-------7------6----------------|
D|-------5------4------9------8--|
A|---------------------7------6--|
E|--0000---0000---0000---0000----|

            TIME- 2:05

Riff 3 x10
e|------------------------------------|
B|------------------------------------|
G|------------------------------------|
D|------------------------------------|
A|------4h5p4-----3h4p3---------------|
E|--000-------000-------000000000000--|

Riff 4 x4
e|---------------------------------------------|
B|---------------------------------------------|
G|---------------------------------------------|
D|---------------------------------------------|
A|------4h5p4-3h4p3-2h3p2----------------------|
E|--000-------------------000-2h3p2-000-1h2p1--|

            TIME- 2:40

Riff 1B x2
e|---------------------------|------------------------------|
B|---------------------------|------------------------------|
G|---------------------------|------------------------------|
D|------4--5--4--3--4--3--4--|------4--5--4--3--4--3-4-3----|
A|------2--3--2--1--2--1--2--|------2--3--2--1--2--1-2-1-5--|
E|--000----------------------|--000----------------------3--|

Riff 2 x8
e|-------------------------------|
B|-------------------------------|
G|-------7------6----------------|
D|-------5------4------9------8--|
A|---------------------7------6--|
E|--0000---0000---0000---0000----|

            TIME- 3:11

Riff 3 x8
e|------------------------------------|
B|------------------------------------|
G|------------------------------------|
D|------------------------------------|
A|------4h5p4-----3h4p3---------------|
E|--000-------000-------000000000000--|

Riff 4 x4
e|---------------------------------------------|
B|---------------------------------------------|
G|---------------------------------------------|
D|---------------------------------------------|
A|------4h5p4-3h4p3-2h3p2----------------------|
E|--000-------------------000-2h3p2-000-1h2p1--|

            TIME- 3:41

Riff 5 x4
e|-----------------|-----------------|
B|-----------------|-----------------|
G|-----------------|-----------------|
D|-----------5--5--|-----------4--5--|
A|-----------5--5--|-----------4--5--|
E|--000-0000-3--3--|--000-0000-2--3--|

Riff 1B x2
e|---------------------------|------------------------------|
B|---------------------------|------------------------------|
G|---------------------------|------------------------------|
D|------4--5--4--3--4--3--4--|------4--5--4--3--4--3-4-3----|
A|------2--3--2--1--2--1--2--|------2--3--2--1--2--1-2-1-5--|
E|--000----------------------|--000----------------------3--|

Riff 2 x4
e|-------------------------------|
B|-------------------------------|
G|-------7------6----------------|
D|-------5------4------9------8--|
A|---------------------7------6--|
E|--0000---0000---0000---0000----|

            TIME- 4:12

Riff 3 x10
e|------------------------------------|
B|------------------------------------|
G|------------------------------------|
D|------------------------------------|
A|------4h5p4-----3h4p3---------------|
E|--000-------000-------000000000000--|

Riff 4 x4
e|---------------------------------------------|
B|---------------------------------------------|
G|---------------------------------------------|
D|---------------------------------------------|
A|------4h5p4-3h4p3-2h3p2----------------------|
E|--000-------------------000-2h3p2-000-1h2p1--|

            TIME- 4:48

Riff 1B x4
e|---------------------------|------------------------------|
B|---------------------------|------------------------------|
G|---------------------------|------------------------------|
D|------4--5--4--3--4--3--4--|------4--5--4--3--4--3-4-3----|
A|------2--3--2--1--2--1--2--|------2--3--2--1--2--1-2-1-5--|
E|--000----------------------|--000----------------------3--|

Riff 4 x4
e|---------------------------------------------|
B|---------------------------------------------|
G|---------------------------------------------|
D|---------------------------------------------|
A|------4h5p4-3h4p3-2h3p2----------------------|
E|--000-------------------000-2h3p2-000-1h2p1--|

Kill the song with this-
e|-----|
B|-----|
G|-----|
D|--2--|
A|--2--|
E|--0--|

            TIME- 5:20
            
Hard to play? Try these video lessons and learn fast. | Correct




comments powered by Disqus
↑ Back to top | Tablatures and chords are parodies/interpretations of the original songs. You may use it for private study, scholarship, research or language learning purposes only