» » »

Dark Angel, Merciless Death Bass tabs (ver.1)

Artists:  A B C D E F G H I J K L M N O P Q R S T U V W X Y Z # 

Merciless Death Bass tabs (ver.1)

Dark Angel Tabs
 Rating:
4/5 (4 votes)
Merciless Death lessons Tabs too difficult? Try these video lessons and learn fast
                -----------------------------------------------------------------------------
                       Dark Angel - Merciless Death
-----------------------------------------------------------------------------
                          (From:Cannibal Bass Player)
                                  (C.B.P)
     Album:Darkness Descends

Tuning: E A D G

(Bass Intro)


G|------8---9--8---7---8---------8---9--8---7---8--------------|
D|-------------------------------------------------------------| (Play 2X)
A|-------0---0---0---0-------------0--0---0---0----------------|
E|-5-7----0---0---0---0------5-7----0--0---0---0---------------|

                     (00:09)

G|------10---11--10---8---10--------10---11--10---8---10-------|
D|-------------------------------------------------------------|
A|--------0--0---0---0----------------0--0---0---0-------------| (play 1x)
E|-6-8-----0--0---0---0--------6-8-----0--0---0---0------------|

                   (00:14)

G|------8---9--8---7---8---------8---9--8---7---8--------------|
D|-------------------------------------------------------------| (Play 3X)
A|-------0--0---0---0-------------0--0---0---0-----------------|
E|-5-7----0--0---0---0------5-7----0--0---0---0----------------|

                  (00:27)

G|------10---11--10---8---10--------10---11--10---8---10-------|
D|-------------------------------------------------------------|
A|--------0--0---0---0----------------0--0---0----0------------| (play 1X)
E|-6-8-----0--0---0---0--------6-8-----0--0---0----0-----------|


G|------8---9--8---7---8---------8---9--8---7---8--------------|
D|-------------------------------------------------------------|
A|-------------------------------------------------------------| (play 1X)
E|-5-7----0--0---0---0------5-7----0--0---0---0----------------|

                 (00:37)
G|-------------------------------------------------------------|
D|-------------------------------------------------------------|
A|-------------------------------------------------------------|
E|--3-3/////////0----------------------------------------------|

                (00:47)

G|-------------------------------------------------------------|
D|-------------------------------------------------------------|
A|------------------------------5---0-3------------------------|
E|-0--0--00000--0000--000--0-0----4-------0000--0000--0--------|

    (00:57)             (01:01)

G|-------------------------------------------------------------|
D|-------------------------------------------------------------|
A|-------------------------------------------------------------|
E|--6-5-4-5-3----------6-5-4-5-3--44444444444444444444446666555|


     
         (01:06)                
G|-------------------------------------------------------------|
D|-------------------------------------------------------------|
A|-------------------------------------------------------------|
E|4444444444444444444446666555-44444444444444444444444446666555|

        (01:13)                (01:18)

G|-------------------------------------------------------------|
D|-------------------------------------------------------------|
A|-------------------------------------------------------------|
E|4444444444444444444444444446666555-111000111000111000111000--|

       (01:23)                   (Play 7X)

G|--------------------------|-----------------------------------|
D|--------------------------|-----------------------------------|
A|--------------------------|-----------------------------------|
E|-4-3---3-2----3-2-3-1-3-5-|00000000000000000000000-3-2-3-1-3-5|

    (01:42)         (01:49)

G|-------------------------------------------------------------|
D|-------------------------------------------------------------|
A|----------------------------------------------5---0-3--------|
E|---------------0--0--0--0--0--0--0--0--0--0-----4------0000--|

                (01:55)

G|-------------------------------------------------------------|
D|-------------------------------------------------------------|
A|-------------------------------------------------------------|
E|0000--444444444444444444-6666555--4444444444444444444-6666555|



G|-------------------------------------------------------------|
D|-------------------------------------------------------------|
A|-------------------------------------------------------------|
E|111100001111000011110000---4-3---3-2---3-2-3-1-3-5-----------|

           (Play 7X)                     (02:27)

G|-----------------------------------|--------------------------|
D|-----------------------------------|--------------------------|
A|-----------------------------------|--------------------------|
E|-0000000000000000000000-3-2-3-1-3-5|-3-2-3-1-3-5-000000000000-|

     (play 7X)  (Guitar Solo)  (2:46) (Play 4X) (Guitar Solo)

G|------------------------|-------------------------------------|
D|------------------------|-------------------------------------|
A|------------------------|------6666555--444--333--222---------|
E|-00000000000-3-2-3-1-3-5|--000--------00---00---00------------|

     (02:58)

G|-------------------------------------------------------------|
D|----6666555--444--333--222-------6666555--444--333--222------|
A|-000-------00---00---00-------000-------00---00--00----------|
E|-------------------------------------------------------------|

      

G|-------------------------------------------------------------|
D|-------------------------------------------------------------|
A|----6666555--444--333--222-----6666555--444--333--222--------|
E|-000-------00---00---00-----000-------00---00---00-----------|

       (03:11)      (03:22)     

G|-------------------------------------------------------------|
D|-------------------------------------------------------------|
A|---------------------------------------5---0-3---------------|
E|------------------0-0-0-0-0-0-0-0-0-0----4------0000--0000---|

    (03:27)

G|-------------------------------------------------------------|
D|-------------------------------------------------------------|
A|-------------------------------------------------------------|
E|-44444444444444444444666655544444444444444444444446666555----|

                            (03:40)

G|-------------------------------------------------------------|
D|-------------------------------------------------------------|
A|-------------------------------------------------------------|
E|-111100001111000011110000--4-3--3-2---3-2-3-1-3-5------------|

        (03:44)(Play 7X)                            (End)

G|-------------------------------------------------------------|
D|-------------------------------------------------------------|
A|-------------------------------------------------------------|
E|-0000000000000000000000000---3-2-3-1-3-5---------------------|
            
Submit corrections

comments powered by Disqus
↑ Back to top | Dark Angel Bass for Merciless Death. Lyrics for acoustic guitar and electric guitar. Tablatures and chords are parodies/interpretations of the original songs. You may use it for private study, scholarship, research or language learning purposes only