» » »

Dark Angel, Hunger Of The Undead Tabs (ver.1)

Artists:  A B C D E F G H I J K L M N O P Q R S T U V W X Y Z # 

Hunger Of The Undead Tabs (ver.1)

Dark Angel Tabs
 Rating:
3.7/5 (6 votes)
Hunger Of The Undead lessons Tabs too difficult? Try these video lessons and learn fast
                #------------------------------------PLEASE  NOTE----------------------------------------------#

G: Dark Angel - Darkness Descends



Band:  Dark Angel  
 


. - palm mute / - slide up to
 - slide down to ^ - vibrato
h - hammer on p - pull off
, - slight palm mute [] - first time only
" " tremolo note <> - Trill

Suffixes for bend
f - full bend h - half bend
ph - pinched harmonic q - quarter bend
t - tap bend * - see comment
~ - Hold bend r - release bend
x – Staccato ~ - vibrato bend

Tuning E A D G B E

Riff 1
|-------------------------------------------|
|-------------------------------------------| 
|-------------------------------------------| 
|--8------------------6-------6----5---4----|  
|--6--------7---------4-------4----3---2----|
|------0"---5----0"-------0"----------------|
       .         .        .                x6
Riff 2
|---------------------------------------------------|
|---------------------------------------------------| 
|---------------------------------------------------| 
|--------------------------------5"~-5"~-5"~--4"~---|  
|-----------5"--------2"---4"----3"~-3"~-3"~--2"~---|
|--0"--2"---3"---2"---0"---2"-----------------------|
                                                   x6 
Riff 3                                  Riff 3b                                  
|---------------------------------------|-------------------------|
|---------------------------------------|-------------------------| 
|------------3"---------------4"--------|-------------------------| 
|------3"----1"--------3"-----2"--------|-------4"~----6"~--------|   
|------1"--------------1"---------------|-------2"~----4"~--------|
|--0"-------------0"--------------------|--2"---------------------|
                                      x2                         x2

Repeat Riff 3/3b x 2 each

Repeat Riff 2 x 4

Repeat Riff 3 x 2 

Repeat Riff 3b x 2 

Repeat Riff 3 x 2 

Repeat Riff 3b x 2 

Repeat Riff 3 x 1

Riff 5 (Song slows down)      Riff 5b 
|----------------------------|-------------------------|
|----------------------------|-------------------------| 
|----------------------------|-------------------------|
|------3-----------2---------|-------------------------| 
|--2---1---2---3---0---1-----|--2--3--3-3-3--2--2------|
|--0-------0---1-------3-----|--0--1--1-1-1--0--0------|
                            x1  .  .  . . .  .  .     x1
Repeat Riff 5/5b x 3

Figure 1                     
-----------------------------|
-----------------------------| 
-----------------------------|  
-----------------------------|  
-----------------------------|
--1"--p2"--1"--p2"---p3"-----|
                            x5
Repeat Riff 5/5b x 3

Repeat Figure 1 x 5

Riff 6 
|----------------------------------------------|
|----------------------------------------------|
|----------------------------------------------|
|----------------------------------------------|
|-----3"---4"--3"---------2"--3"--2"-----------|
|--1"---------------4"--3"-------------3"--2"--|

Riff 6 b
|--------------------------------------------|
|--------------------------------------------| 
|--------------------------------------------| 
|--------------------------------------------|  
|--3"--4"--3"----------2"--3"--2"------------|
|-------------4"--3"---------------3"---4"---|

Riff 6 c
|------------------------------------------|
|------------------------------------------| 
|------------------------------------------| 
|------------------------------------------|  
|--5"-6"--5"---------5"--6"-5"------"------|
|------------6"--5"-------------5"-[2]--3"-|
                                          
Repeat Riff 6 c

Repeat Riff 6 

Repeat Riff 6 b

Repeat Riff 6 c 

Repeat Riff 2 x 8

Repeat Riff 3 x 2 

Repeat Riff 3b x 2 

Repeat Riff 3 x 2 

Repeat Riff 3b x 2 

Repeat Riff 3 x 1

Repeat Riff 5 - End.
            
Submit corrections

comments powered by Disqus
↑ Back to top | Dark Angel Tabs for Hunger Of The Undead. Lyrics for acoustic guitar and electric guitar. Tablatures and chords are parodies/interpretations of the original songs. You may use it for private study, scholarship, research or language learning purposes only